Oops, an error
Loading. Please wait.

Jesús De Chamberí Tab

version 2
version 2

Whole song

Interactive

118 views 1 this week
no commentswrite comment
1 2 3 4 5
3 more votes to show rating
add to favorites
launch autoscroll
font size
0
reset
how to read this tab
guitar tuner
×
Best way to learn
"Jesús De Chamberí"
Autoscroll
slow
fast
+/-
esc
set tempo
stop
INTRO (Rhy. fig. 1)
       ===========
                                                                      
E||---------------------------------|--------------------------------|
B||---------------------------------|--------------------------------|
G||*--------------------------------|--------------------------------|
D||*--------------------------------|--------------------------------|
A||---9------9------9---------------|--9------9------9---------------|
E||---7--7-7-7--7-7-7--7-7-7-10-9-7-|--7--7-7-7--7-7-7--7-7-7-10-9-7-|
	P.M.]  P.M.]  P.M..........]     P.M.]  P.M.]  P.M..........]

                                                             4x
-------------------------------|-----------------------------||
-------------------------------|-----------------------------||
-------------------------------|----------------------------*||
-------------------------------|----------------------------*||
--7------7------7--------------|--2------2------4--4--7--7---||
--5--5-5-5--5-5-5--5-5-5-9-7-5-|--0--0-0-0--0-0-2--2--5--5---||
    P.M.]  P.M.]  P.M.........]     P.M.]  P.M.]  

-------------------------------|
-------------------------------|
-------------------------------|
-------------------------------|
--9----------------------------|
--7----------------------------|


Rhy. fig. 2
===========

   Era una fria noche...   
                                                                      
E||-----------------------|-----------------------|-------------------|
B||-----------------------|-----------------------|-------------------|
G||-----------------------|-----------------------|-------------------|
D||-----------------------|-----------------------|-------------------|
A||--9--9--9--------------|--9--9--9--------------|--7----------------|
E||--7--7--7--------------|--7--7--7--------------|--5----------------|


                                                                 
---------------------|
---------------------|
---------------------|
---------------------|
--2--------4----7----|
--0--------2----5----|


BRIDGE

--7---------------------------------------|
-----10--8--10--8--7--8--7-----10--8--10--|
----------------------------9-------------|
------------------------------------------|
------------------------------------------|
------------------------------------------|


De su profundo sueño... -->con Rhy. fig. 1


Rhy. fig. 3
===========

   En su mirada la...   
                                                  
E||--------------------------|----------------------|
B||--------------------------|----------------------|
G||--------------------------|----------------------|
D||--------------------------|----------------------|
A||--12--9-9-----12--9-9-----|--12---9---7----------|
E||--10--7-7-----10--7-7-----|--10---7---5----------|


                            (2 gtrs)
--------------------------|-------------------------|
--------------------------|--7--7-7-7p5-------------|
--------------------------|--7--7-7-7p6-6-7---------|
--------------------------|-------------7-9---------|
--12--9-9-----12--9-9-----|-------------------------|
--10--7-7-----10--7-7-----|-------------------------|


ESTRIBILLO (Rhy. fig. 4)
            ===========

Escuchad mi palabra...
                                                            
-------------------|-------------------|-------------------|
-------------------|-------------------|-------------------|
-------------------|-------------------|-------------------|
-------------------|-------------------|-------------------|
--5----------------|--7----------------|--9----------------|
--3----------------|--5----------------|--7----------------|

                                                             
-------------------|-------------------|-------------------|
-------------------|-------------------|-------------------|
-------------------|-------------------|-------------------|
-------------------|-------------------|-------------------|
-(9)----------7----|--5----------------|--7----------------|
-(7)----------5----|--3----------------|--5----------------|


-------------------|------------------|
-------------------|------------------|
-------------------|------------------|
-------------------|------------------|
--4----------------|-(4)--------------|
--2----------------|-(2)--------------|


-->Rhy. fig 1
Mi reino no...--> con Rhy. fig 2
Mi politica es la...--> con Rhy. fig 1
A vuestra piel...--> con Rhy. fig 3
Escuchad mi palabra...--> con Rhy. fig 4


PRELUDIO A LA PARTE LENTA

                                enlentecer poco a poco......] 
-------------------------------|-----------------------------||
-------------------------------|-----------------------------||
-------------------------------|-----------------------------||
-------------------------------|-----------------------------||
----------4------4-------------|--9-7------7-----------------||
--0h2-2-2-2--2-2-2--2-2-2-2-2--|------10-9---10-9-5-7--------||
 PM......]  PM..]  PM........]

PARTE LENTA Y SOLO1

   (sonido limpio)                                                        
E||--------------------------|-------------------------|
B||--------------2h-3--------|-------------3p-2--------|
G||*----------4--------4-----|----------4--------4-----|
D||*-------4--------------4--|-------4--------------4--|
A||---2----------------------|--2----------------------|
E||--------------------------|-------------------------|

							Solo
                                                     6x (Con ritmo anterior)
-------------------------|---------------------------||--------------9--------|
-------------2p-0--------|-----------0-----------0---||------------7----------|
----------2--------2-----|--------------------------*||----------6------------|
-------2--------------2--|--------5-----------7-----*||--------7--------------|
--0----------------------|-----5-----------7---------||------9----------------|
-------------------------|--3-----------5------------||-----------------------|


                                                                               
-(9)/-10--9--------------|--------------9--------|--10--9----10--12------10p9-|
-------------12----------|------------7----------|----------------------------|
-----------------11------|----------6------------|----------------------------|
-------------------------|--------7--------------|----------------------------|
-------------------------|------9----------------|----------------------------|
-------------------------|-----------------------|----------------------------|


                                                        
--------------------|----------------------------------|
--12----------------|--12/-14--14/-15--15\-14--14\-12--|
--------------------|----------------------------------|
--------------------|----------------------------------|
--------------------|----------------------------------|
--------------------|----------------------------------|


                                                            
--------------------------|--------------------------------|
--12--------10------------|--------------------------------|
----------------12----11--|--12--11----------12-11-9-------|
--------------------------|--------------------------12-11-|
--------------------------|--------------------------------|
--------------------------|--------------------------------|


                                                                               
----------------------------|---------------------------|---------------------|
----------------------------|---------------------------|---------------------|
--------------------11/-12--|--11------9----------------|---------------------|
--9\----/9--11--12----------|-------------12--11---/12--|--11--------------9--|
----------------------------|---------------------------|---------------------|
----------------------------|---------------------------|---------------------|


                                                       
------9------------10--------|-----12--------10----9--|
-----------------------------|------------------------|
-----------------------------|--9---------------------|
--11-------11--12--------12--|------------------------|
-----------------------------|------------------------|
-----------------------------|------------------------|


                                                     
--10p-9------------9--10/-|--12------10p9h10--------|
---------------12---------|-------------------------|
--------------------------|-------------------------|
--------------------------|-------------------------|
--------------------------|-------------------------|
--------------------------|-------------------------|


                                            
--10p9h10p9h10p9h10p9h10p9h10p9h10p9h10p9-||
------------------------------------------||
------------------------------------------||
------------------------------------------||
------------------------------------------||
------------------------------------------||


BRIDGE CON EL SOLO CAÑERO
                                                                          
E||---14------------------------------|--15------------------------------|
B||-------15--14--15------15--14--15--|------15--14--15------15--14--15--|
G||*------------------16--------------|------------------16--------------|
D||*----------------------------------|----------------------------------|
A||-----------------------------------|----------------------------------|
E||-----------------------------------|----------------------------------|


                                   
--17------------------------------|
------17--15--17--14--17--15--17--|
----------------------------------|
----------------------------------|
----------------------------------|
----------------------------------|


                                                   2x                     
--17-15-14----15-14-------14-----------------------||--------------------|
-----------17-------17-15----17-15-14-17-15-14-----||--14----------------|
-----------------------------------------------16-*||--------------------|
--------------------------------------------------*||--------------------|
---------------------------------------------------||--------------------|
---------------------------------------------------||--------------------|


RITMO DEL 2º SOLO(Ritmo rápido)
                                                       3x
-----------------------||------------------------------||
-----------------------||------------------------------||
-----------------------||*----------------------------*||
-----------------------||*----------------------------*||
----------9------------||---9------------9-------------||
----------7----7-7-7-7-||---7----7-7-7-7-7----7-7-7-7--||


                                                         
-------------------------||-----------------------------|
-------------------------||-----------------------------|
-------------------------||*----------------------------|
-------------------------||*----------------------------|
--9------------5----7----||---9------------9------------|
--7----7-7-7-7-3----5----||---7----7-7-7-7-7----7-7-7-7-|


                                                            
------------------------------|----------------------------|
------------------------------|----------------------------|
------------------------------|----------------------------|
------------------------------|----------------------------|
--9------------7----4----7----|--9------------9------------|
--7----7-7-7-7-5----2----5----|--7----7-7-7-7-7----7-7-7-7-|


                                                            
------------------------------|----------------------------|
------------------------------|----------------------------|
------------------------------|----------------------------|
------------------------------|----------------------------|
--9------------7----4----7----|--5------------5------------|
--7----7-7-7-7-5----2----5----|--3----3-3-3-3-3----3-3-3-3-|


                                                          
----------------------------|----------------------------|
----------------------------|----------------------------|
----------------------------|----------------------------|
----------------------------|----------------------------|
--5------------5------------|--7------------7------------|
--3----3-3-3-3-3----3-3-3-3-|--5----5-5-5-5-5----5-5-5-5-|


                                                                    
------------------------------||---14------------------------------|
------------------------------||-------15--14--15------15--14--15--|
-----------------------------*||*------------------16--------------|
-----------------------------*||*----------------------------------|
--12----11----9----11---------||-----------------------------------|
--10----9-----7----9----------||-----------------------------------|


                                                                      
--15------------------------------|--17------------------------------|
------15--14--15------15--14--15--|------17--15--17--14--17--15--17--|
------------------16--------------|----------------------------------|
----------------------------------|----------------------------------|
----------------------------------|----------------------------------|
----------------------------------|----------------------------------|


                                     
--17--15--14------14---------------||
--------------17------17--14-------||
------------------------------16--*||
----------------------------------*||
-----------------------------------||
-----------------------------------||


   Huid del sexo...
                                                        
E||--------------------------|-------------------------|
B||--------------------------|-------------------------|
G||*-------------------------|-------------------------|
D||*-------------------------|-------------------------|
A||---9----------------------|--------------------7----|
E||---7----7--7--7--7--7--7--|--7--7--7--7--7--7--5----|


                                                                              
-------------------------|-------------------------|-------------------------|
-------------------------|-------------------------|-------------------------|
-------------------------|-------------------------|-------------------------|
-------------------------|-------------------------|-------------------------|
--9----------------------|--------------------9----|--7----------------------|
--7----7--7--7--7--7--7--|--7--7--7--7--7--7--7----|--5----5--5--5--5--5--5--|


                                                                           
-------------------------|-------------------------|---------------------||
-------------------------|-------------------------|---------------------||
-------------------------|-------------------------|--------------------*||
-------------------------|-------------------------|--------------------*||
--------------------7----|--4----------------------|--5--------7---------||
--5--5--5--5--5--5--5----|--2----2--2--2--2--2--2--|--3--------5---------||


A un toxicomano menor...-->con Rhy. fig 3


ESTRIBILLO CAÑERO

   Escuchad mi palabra...
                                                        
E||-------------------------|--------------------------|
B||-------------------------|--------------------------|
G||-------------------------|--------------------------|
D||-------------------------|--------------------------|
A||--3----------------------|--------------------------|
E||--5----3--3--3--3--3--3--|--3--3--3--3--3--3--3--3--|
         P.M.........................................]

                                                                               
-------------------------|--------------------------|-------------------------|
-------------------------|--------------------------|-------------------------|
-------------------------|--------------------------|-------------------------|
-------------------------|--------------------------|-------------------------|
--7----------------------|--------------------------|--9----------------------|
--5----5--5--5--5--5--5--|--5--5--5--5--5--5--5--5--|--7----7--7--7--7--7--7--|
       P.M.........................................]       P.M...............

                                                            
--------------------------|--------------------------------|
--------------------------|--------------------------------|
--------------------------|--------------------------------|
--------------------------|--------------------------------|
--------------------11----|--12----------------------------|
--7--7--7--7--7--7--9-----|--10----10--10--10--10--10--10--|
..................]               P.M....................]

                                                                              
------------------------|-------------------------|--------------------------|
------------------------|-------------------------|--------------------------|
------------------------|-------------------------|--------------------------|
------------------------|-------------------------|--------------------------|
--12----11----9----7----|--5----------------------|--------------------------|
--10----9-----7----5----|--3----3--3--3--3--3--3--|--3--3--3--3--3--3--3--3--|
                               P.M.........................................]

                                                                               
-------------------------|--------------------------|-------------------------|
-------------------------|--------------------------|-------------------------|
-------------------------|--------------------------|-------------------------|
-------------------------|--------------------------|-------------------------|
--7----------------------|--------------------------|--4----------------------|
--5----5--5--5--5--5--5--|--5--5--5--5--5--5--5--5--|--2----2--2--2--2--2--2--|
      P.M.........................................]        P.M................

                                                      
--------------------------|--------------------------|
--------------------------|--------------------------|
--------------------------|--------------------------|
--------------------------|--------------------------|
--------------------------|--------------------------|
--2--2--2--2--2--2--2--2--|--2--2--2--2--2--2--2--2--|
.....................................................

                             
---------------------------||
---------------------------||
--------------------------*||
--------------------------*||
---------------------------||
--2--2--2--2--2--2--2--2---||
........................]


Era una fría noche de Abril.
El cielo se cubrió de sombras,
la lluvia hacía el amor acariciando Madrid
y el Verbo se hizo carne y habitó en Chamberí.

De su profundo sueño despertó
'tumbao' en un banco en medio de la plaza
envuelto entre sábanas de frío y cartón
a flor de piel su rabia y en su mirada la razón.

'Escuchad mi palabra
un mandamiento nuevo os doy:
derribad las naciones,
con tolerancia y a golpes de amor'.

Mi reino no es de este mundo
y en mi patria no se pone el sol
donde la paz aborta nacen sus fronteras
mi ejército el instinto y por juez el corazón

Mi política es la libertad,
y soy el rey de los oprimidos
por cada preso de conciencia que encarceláis
el miedo y la ignorancia a vuestra piel encadenáis

'Escuchad mi palabra
un mandamiento nuevo os doy:
derribad las naciones,
con tolerancia y a golpes de amor'.

En un callejón
Sara vende su amor
alquila SIDA hasta las dos
rogando a Dios que calme su dolor

Huid del sexo -dice un predicador-
porque es maligno y fuente de pecado,
os dejo un mandamiento nuevo: haced el amor,
y no pongáis al campo puertas que no he puesto yo.

Como discípulos a doce eligió:
dos prostitutas, cinco ex-presidiarios,
dos inmigrantes negros y un poeta de Rock,
a Pedro el vagabundo y a un toxicómano menor

'Escuchad mi palabra
un mandamiento nuevo os doy:
derribad las naciones,
con tolerancia y a golpes de amor'.
Suggest correction
Give kudos to tab author, rate the tab!
1 2 3 4 5
comments
print report bad tab
guest
You may want to rate the tab now too:
select rating
Wanna post a correction for this tab? Suggest correction