Oops, an error
Loading. Please wait.

Jesús De Chamberí Bass Tab

version 1
version 1

Whole song

Interactive

130 views 3 this week
no commentswrite comment
1 2 3 4 5
3 more votes to show rating
add to favorites
launch autoscroll
font size
0
reset
guitar tuner
Autoscroll
slow
fast
+/-
esc
set tempo
stop
Help us to improve Ultimate-Guitar.com Take our survey!
×
los tiempos nose como van asi que solo al oido
los pueden ir sacando, perdon si hay errores pero 
es muy pizado algunas cosas que toca Salva que no las
puedo sacar pero esto le hace huevos

/:= slide to nowhere

G||--------|------------------------------------------------
D||--------|------------------------------------------------
A||---/:---|--9-9-9-9-9-9--11-10-9----9-9-9-9-9-9--11-10-9--
E||--------|------------------------------------------------

G||---------------------------------------------|
D||---------------------------------------------|
A||-7-7-7-7-7-7--10-9-7---5-5-5-5-5--3-3-3-3-3--|
E||---------------------------------------------|

riff 1 (era una fria noche de abril...)

G||------------------------------------------------------------
D||------------------------------------------------------------
A||-5-5-5-5-5-5-5---2-2-2-2-2-2-2--0-0-0-0-0-0-0--7-7-7-7-7-7-7
E||------------------------------------------------------------

final del verso (y el verbo se hizo carne y habito...)
G||------------------------------------------------------
D||-10-10-10--8-8-8--7-7-7-----10-9----------------------
A||-------------------------9----------------------------
E||------------------------------------------------------

* se toca el intro x 1

riff 3 (en su mirada la razon la 2 vez)

G||-----------------------------|-------------------------
D||-----------------------------|-------------------------
A||-10--7--10--7--10-10-10-10-7-|-10--7--10--7-/:---------
E||-----------------------------|-------------------------

riff 4 (escuchad mi palabra...) se toca el riff 2 
y al final esto
G||---------------|
D||---------------|
A||-9---7--5h7--3-|
E||---------------|

* se toca el riff 2

* se toca el intro x2

* se toca el riff 2(mi reino...)

* se toca el intro(mi politica...)

* se toca el riff 3 (a vuestra...)

* se toca el riff 4 (escuchad...)

pedacito antes del preludio

G||------------------------------------------------------
D||------------------------------------------------------
A||---9--7--5--7--9--7--5--3--5--------------------------
E||------------------------------------------------------

(el nunca llego...) (este solito nose si esta bien pero suena algo asi)
se repite hasta 4:09

G||------------------------------------------------------
D||------------------------------------------------------
A||-0-3h5--7-6-5--3-5--7-0-3h5----7--5--3----------------
E||------------------------------------------------------
despues del 4:09 se va con esto hasta el solo rapido de bajo

G||--------------------|
D||--------------------|
A||--3----5----7----9--|
E||--------------------|

solo rapido: (es 1-0-3 no 10-3)

G||--999---777---555---333---103-------------------------
D||------------------------------------------------------
A||------------------------------------------------------
E||------------------------------------------------------

en el solo de guitarra se repite  hasta el final del solo

G||------------------------------------------------------
D||------------------------------------------------------
A||-99999999--7--5-7-9--99999999-7-5-3-5-77777777--5-3-5-7
E||------------------------------------------------------


en el final del solo
G||---------------|
D||---------------|
A||--3---5---7---9|
E||---------------|

(huid del sexo dice un predicador...)

G||------------------------------------------------------
D||------------------------------------------------------
A||-77777777----55555555----22222222---------------------
E||------------------------------------------------------

*riff 3
*riff 4 hasta el final

otra tab de mago de oz!! cualquier correccion o comentario 
 a jmuller87@ (chily beans del  Roble)
si tienen mas tabs de Mago de oz mandenmelas!!!!!
despues viene:

santa compaña
hasta q tu muerte nos separe
templo del adios
el pacto
voy a tratar de subir por lo menos 1 por semana de estas 4!!!
Suggest correction
Give kudos to tab author, rate the tab!
1 2 3 4 5
comments
print report bad tab
guest
You may want to rate the tab now too:
select rating
Wanna post a correction for this tab? Suggest correction