Oops, an error
Loading. Please wait.

Jesús De Chamberí Tab

version 4
version 4

Whole song

Interactive

28 views 1 this week
no commentswrite comment
1 2 3 4 5
3 more votes to show rating
add to favorites
launch autoscroll
font size
0
reset
how to read this tab
guitar tuner
×
Best way to learn
"Jesús De Chamberí"
Autoscroll
slow
fast
+/-
esc
set tempo
stop
  BUENO PUES AKI ESTOY DE NUEVO SUBIENDO MAS ROLAS
      AKI LES VOY A PRESENTAR UNA DE MIS ROLAS FAVOTITAS DE LOS MÄGOS
    AKI ESTAS:

INTRODUCCION DE GUITARRA:

E--------------------------------|E---------------------------------|
B--------------------------------|B---------------------------------|
G--------------------------------|G---------------------------------|
D-9-----9-----9----*9-9-9-9-9-*--|D-9-----9---9-----9-*-9-9-9-9*--7~|
A-9-----9-----9----*9-9-9-9-9-*--|A-9-----9---9-----9-*-9-9-9-9*--7~|
E-7-7-7-7-7-7-7-7-7*7-7-7-7-7-*--|E-7-7-7-7-7-7-7-7-7-*-7-7-7-7*--5~|


E--------------------------|
B--------------------------|
G--------------------------|
D-7-----7-----7----------2~|
A-7-----7-----7----------2~|
E-5-5-5-5-5-5-5-5-9-7-5--0~|

E--------------------------|
B--------------------------|
G--------------------------|
D-2-----2--7--5--7---------|
A-2-----2--7--5--7---------|
E-0-0-0-0--5--3--5---------|

E----------------------|
B----------------------|
G----------------------|
D----9~----------------|
A----9~----------------|
E----7~----------------|

                     AQUI EMPIEZA EL VIOLIN(0:21)

                   TODA LA INTRODUCCION SE REPITE 4 VECES HASTA
                     LOS 0:41


LA PARTE MARCADA POR LOS ASTERISCOS ESA PARTE SE PUEDE
HACER DE DISTIRA FORMA PERO ESA PARTE LE PONEN ALGO DE RITMO
PARA QUE SUENE BIEN AL FINAL HASTA ABAJO LES PONDRE LA OTRA FORMA.
E---------------------|
B---------------------|
G---------------------|RIFF 1
D--9--9---------------|
A--9--9---------------|
E--7--7---------------|
ESTO VA ANTES DE  QUE COMIENZE EL VERSO

ERA UN FRIA NOCHE DE ABRIL

E-----------------------|RIFF 1
B-----------------------|
G-----------------------|
D-9--9------------------|
A-9--9------------------|
E-7--7------------------|

EL CIELO SE CUBRIÓ DE SOMBRAS...
D-7--7-------------------|
A-7--7-------------------|RIFF 2
E-5--5-------------------|

Y EL VERBO SE HIZO CARNE Y HABITO EN
CHAMBEERÍ HOOOO

D-2-----7-5-7------|
A-2-----7-5-7------|
E-0-0-0-5-3-5------|RIFF 3


AQUI ENTRA UN INTERLUDIO PERO NO LO E SACADO


DE SU PRUFUNDO SUEÑO DESPERTO......

E------------------------------------|X 2
B------------------------------------|RIFF 4
G------------------------------------|
D-9------9-----9-------------3-------|
A-9------9-----9-------------3-------|
E-7-7-7--7-7-7-7-7-10-9-7----5-------|


ENVUELTO ENTRE SABANAS DE FRIO Y CARTÓN...

E------------------------------|
B------------------------------|RIFF 5
G------------------------------|
D-7-----7---7------------2~----|
A-7-----7---7---------0--2~----|
E-5-5-5-5-5-5-5-9-9-5----0~----|


A FLOR DE PIEL SU RABIA Y EN SU
MIRADA LA RAZON....

E------------------------------|
B------------------------------|RIFF 6
G------------------------------|
D-2-----2--2-7--5--7-----------|
A-2-----2--2-7--5--7-----------|
E-0-0-0-0--0-5--3--5-----------|


EN SU MIRADA LA RAZON(ES CUANDO LO REPITE)1:06


E---------------------|
B---------------------|RIFF 7
G---------------------|
D----7--5-7-5---------|
A----7--5-5-5---------|
E----5--3-5-3---------|


               ANTES DEL CORO HAY UN INTERLUDIO
                      NO LO E SACADO JEJE

E----------------|
B----------------|
G----------------|
D----------------|
A-0~-------------|
E----------------|


E--------------------|
B--------------------|
G-7------------------|
D-7------------------|
A-5------------------|
E--------------------|
ESTO VA ANTES DE EL CORO (1:16)


                          CORO

ESCUCHAD MI PALABRA......

E-------------------|
B-------------------|
G-------------------|
D--7----------------|
A--7----------------|
E--5----------------|

  OS DOY
E--------------------|
B--------------------|
G--5-----------------|
D--5-----------------|
A--3-----------------|
E--------------------|


OOOOOOOYYYYYYY

E-----------------|
B-----------------|
G-----------------|
D----5------------|
A----5------------|
E----3------------|

DERRIVAD LAS NACIONES
E--------------------------|
B--------------------------|X2
G-------5---------5--------|
D--7----5----7----5--------|RIFF 8
A--7----3-3--7----3-3------|
E--5-5-------5-5-----------|
EL RIFF 8 SE REPITE HASTA
GOLPES DE AMOORR.

Y VUELVE A EMPEZAR EL VIOLIN
RIFF 1
MI REINO NO ES DE ESTE MUNDO
RIFF 1

 DONDE LA PAZ ABORTA..
RIFF 2

MI EJERCITO EL INSTINTO Y POR..
RIFF 3

Y MI POLITICA ES LA LIBERTAD
FIFF 4

CON CADA PRESO DE CONCIENCIA QUE..
RIFF 5

EL MIEDO Y LA IGNORANCIA A VUESTRA PIEL
ENCADENAIS
RIFF 6

AVUESTRA PIEL ENCADENAIS

RIFF 7 X2

Y SE REPITE EL CORO COMO EL DE ANTES


EN  UN CALLEJON SARA VENDE SU AMOR ALQUILA SIDA
HASTA LAS 2:00ROGANDO A DIOS QUE CALME SU DOLOR,SU DOLOR


                       SOLO
         NO LO TRANSCRIBO POR KE YA ESTA TRANSCRIBO


HUID DEL SEXO DICE UN PREDICADO..
RIFF 1 Y LUEEGO CAMBIA RAPIDAMENTE AL RIFF 4

DEJO UN MANDAMIENTO NUEVO..
RIFF 2 Y RAPIDAMENTE AL RIFF 5

Y NO PONGAIS AL CAMPO PUERTAS KE NO E
PUESTO YO

RIFF 6 Y LUEGO SE TOCA ESTO

E---------------------|
B---------------------|
G---------------------|
D------5---7----9-----|RIFF 9
A------5---7----9-----|
E------3---5----7-----|

COMO DISIPULOS A 12 ELIGIO 2 PROSTITUTAS
5 EXPRESIDIARIOS,3 EMIGRANTES NEGROS Y UN POETA DE ROCK A
PEDRO EL VAGABUNDO Y UN TOXICOMANO MENOR

TODO SE REPITE COMO LO ANTERIOR SOLO KE EL ULTIMO
RIFF 9 SE CAMBIA POR EL RIFF 7 X2


Y SE REPITE EL CORO IGUAL KE EL PRIMERO.

BUENO ESO FUE TODO ESPERO KE LES AGRADE Y KE DESIFREN LA PARTE
PARTE ASTERISKEADA JAJAJAJA.

        PROXIMAMENTE MÁS TABS DE MAGO
Suggest correction
Give kudos to tab author, rate the tab!
1 2 3 4 5
comments
print report bad tab
guest
You may want to rate the tab now too:
select rating
Wanna post a correction for this tab? Suggest correction