Oops, an error
Loading. Please wait.

Jesús De Chamberí Tab

version 5
version 5

Whole song

Interactive

55 views 1 this week
no commentswrite comment
1 2 3 4 5
3 more votes to show rating
add to favorites
launch autoscroll
font size
0
reset
how to read this tab
guitar tuner
×
Best way to learn
"Jesús De Chamberí"
Autoscroll
slow
fast
+/-
esc
set tempo
stop
Mohamed


E||-------------------||--------------------|-------------------|
B||-------------------||--------------------|-------------------|
G||-------------------||*-------------------|-------------------|
D||-------------------||*-------------------|-------------------|
A||-------------------||--------------------|-------------------|
E||-------------------||--------------------|-------------------|


|--------------------||-----------7--7-7-10-9-7----7--7-7-|
|--------------------||------8-10---------------10--------|
|-------------------*||----9------------------------------|
|-------------------*||--9--------------------------------|
|--------------------||-----------------------------------|
|--------------------||-----------------------------------|


-----------7--7-7-10-9-7----7--7-7-|
------8-10---------------10--------|
----9------------------------------|
--9--------------------------------|
-----------------------------------|
-----------------------------------|


--15-14-12--------------15-14-12--------7-7-|
-----------15--------------------15-12------|
--------------14--14-14---------------------|
--------------------------------------------|
--------------------------------------------|
--------------------------------------------|


--10-9-7----9-7------7-----------------|
---------10-----10-8---10-8-7-10-8-7---|
-------------------------------------9-|
---------------------------------------|
---------------------------------------|
---------------------------------------|


|-----------7--7-7-10-9-7----7--7-7-|
|------8-10---------------10--------|
|----9------------------------------|
|--9--------------------------------|
|-----------------------------------|
|-----------------------------------|

-----------7--7-7-10-9-7----7--7-7-|
------8-10---------------10--------|
----9------------------------------|
--9--------------------------------|
-----------------------------------|
-----------------------------------|


--15-14-12--------------15-14-12--------7-7-|
-----------15--------------------15-12------|
--------------14--14-14---------------------|
--------------------------------------------|
--------------------------------------------|
--------------------------------------------|


--10-9-7----9-7------7-----------------|-------|
---------10-----10-8---10-8-7-10-8-7---|-------|
-------------------------------------9-|-------|
---------------------------------------|--9~---|
---------------------------------------|-------|
---------------------------------------|-------|


---------------------|-------------------|
---------------------|-------------------|
---------------------|-------------------|
--9------------------|-------------------|
---------------------|-------------------|
---------------------|-------------------|


-------------------|-------------------|----|
-------------------|-------------------|--8-|
-------------------|-------------------|----|
-------------------|-------------------|----|
-------------------|-------------------|----|
-------------------|-------------------|----|


------|-----------9--|--10----9----------------|
--10--|--12---12-----|-------------12----10----|
------|--------------|-------------------------|
------|--------------|-------------------------|
------|--------------|-------------------------|
------|--------------|-------------------------|


-----|--------|---------------------------------|
--8--|--10----|--5h-7-7-7-7--7-7-7--7-7-7-7-7-7-|
-----|--------|---------------------------------|
-----|--------|---------------------------------|
-----|--------|---------------------------------|
-----|--------|---------------------------------|


--------------------------------|
--5h-7-7-7-7--5h-7------7-5-----|
----------------------------7---|
------------------------------7-|
--------------------------------|
--------------------------------|


|-----------7--7-7-10-9-7----7--7-7-|
|------8-10---------------10--------|
|----9------------------------------|
|--9--------------------------------|
|-----------------------------------|
|-----------------------------------|


-----------7--7-7-10-9-7----7--7-7-|
------8-10---------------10--------|
----9------------------------------|
--9--------------------------------|
-----------------------------------|
-----------------------------------|


--15-14-12--------------15-14-12--------7-7-|
-----------15--------------------15-12------|
--------------14--14-14---------------------|
--------------------------------------------|
--------------------------------------------|
--------------------------------------------|


-10-9-7----9-7------7-----------------|
--------10-----10-8---10-8-7-10-8-7---|
------------------------------------9-|
--------------------------------------|
--------------------------------------|
--------------------------------------|


|-----------7--7-7-10-9-7----7--7-7-|
|------8-10---------------10--------|
|----9------------------------------|
|--9--------------------------------|
|-----------------------------------|
|-----------------------------------|


-----------7--7-7-10-9-7----7--7-7-|
------8-10---------------10--------|
----9------------------------------|
--9--------------------------------|
-----------------------------------|
-----------------------------------|


--15-14-12--------------15-14-12--------7-7-|
-----------15--------------------15-12------|
--------------14--14-14---------------------|
--------------------------------------------|
--------------------------------------------|
--------------------------------------------|


--10-9-7----9-7------7-----------------|--------|
---------10-----10-8---10-8-7-10-8-7---|--------|
-------------------------------------9-|--------|
---------------------------------------|--9~----|
---------------------------------------|--------|
---------------------------------------|--------|


---------------------|-------------------|
---------------------|-------------------|
---------------------|-------------------|
--9------------------|-------------------|
---------------------|-------------------|
---------------------|-------------------|


-------------------|-------------------|------|
-------------------|--8----------------|--10--|
-------------------|-------------------|------|
-------------------|-------------------|------|
-------------------|-------------------|------|
-------------------|-------------------|------|


--------------------9--|--10----9----------------|-----|
--12------------12-----|-------------12----10----|--8--|
-----------------------|-------------------------|-----|
-----------------------|-------------------------|-----|
-----------------------|-------------------------|-----|
-----------------------|-------------------------|-----|


--------------------|---------------------------------|
--10----------------|--5h-7-7-7-7--7-7-7--7-7-7-7-7-7-|
--------------------|---------------------------------|
--------------------|---------------------------------|
--------------------|---------------------------------|
--------------------|---------------------------------|


-------------------|---------------------------------|
--5h-7-7-7-7--5h-7-|--5h-7-7-7-7--7-7-7--7-7-7-7-7-7-|
-------------------|---------------------------------|
-------------------|---------------------------------|
-------------------|---------------------------------|
-------------------|---------------------------------|


--14~--L--15----14--|-------|--14~--------L--15----14--|
--------------------|--15~--|--------------------------|
--------------------|-------|--------------------------|
--------------------|-------|--------------------------|
--------------------|-------|--------------------------|
--------------------|-------|--------------------------|


--17~----L--15--14--15----14-------|--14~----L--12------|
--------------------------------17-|----------------15--|
-----------------------------------|--------------------|
-----------------------------------|--------------------|
-----------------------------------|--------------------|
-----------------------------------|--------------------|


--12~----------------------------------|---------|
-------------15--14--15----14----12----|--14~----|
---------------------------------------|---------|
---------------------------------------|---------|
---------------------------------------|---------|
---------------------------------------|---------|


-----------------------------|---------------------|
--14~------------15-14-12----|--12~----------------|
--------------------------14-|---------------------|
-----------------------------|---------------------|
-----------------------------|---------------------|
-----------------------------|---------------------|


|--14----------------------15----------------------|
|-----15-14-15----15-14-15----15-14-15----15-14-15-|
|--------------16----------------------16----------|
|--------------------------------------------------|
|--------------------------------------------------|
|--------------------------------------------------|


--17----------------------17-15-14----15-14-------|
-----17-15-17-14-17-15-14----------17-------17-15-|
--------------------------------------------------|
--------------------------------------------------|
--------------------------------------------------|
--------------------------------------------------|


--14----------------------15----------------------|
-----15-14-15----15-14-15----15-14-15----15-14-15-|
--------------16----------------------16----------|
--------------------------------------------------|
--------------------------------------------------|
--------------------------------------------------|


--17----------------------17-15-14----15-14-------|
-----17-15-17-14-17-15-14----------17-------17-15-|
--------------------------------------------------|
--------------------------------------------------|
--------------------------------------------------|
--------------------------------------------------|


Duration Legend
---------------
W - whole
H - half
Q - quarter
E - 8th
S - 16th
T - 32nd
X - 64th
. - note dotted
|-n-|  - n-tuplets


Tablature Legend
----------------
L - tied note
x - dead note
g - grace note
(n) - ghost note
> - accentuded note
NH - natural harmonic
AH - artificial harmonic
TH - tapped harmonic
SH - semi harmonic
PH - pitch harmonic
h - hammer on
p - pull off
b - bend
br - bendRelease
pb - preBend
pbr - preBendRelease
brb - bendReleaseBend
n/ - tremolo bar dip
n - tremolo bar dive
-/n - tremolo bar Release up
/n - tremolo bar inverted dip
/n - tremolo bar return
-n - tremolo bar Release down
S - shift slide
s - legato slide
/ -  slide into from below or out of upwards
 -  slide into from above or out of downwards
~ - vibrato
W - wide vibrato
tr - trill
TP - tremolo picking
T - tapping
S - slap
P - pop
< - fade in
^ - brush up
v - brush down

esta transcripcion es todo lo del violin
en la cancion dudas o comentarios
a mi correo dinael_cabrera@
att.d.f.c.j
Suggest correction
Give kudos to tab author, rate the tab!
1 2 3 4 5
comments
print report bad tab
guest
You may want to rate the tab now too:
select rating
Wanna post a correction for this tab? Suggest correction