Oops, an error
Loading. Please wait.

Kelpie Tab

391 views 3 this week
no commentswrite comment
1 2 3 4 5
2 more votes to show rating
add to favorites
×
Save as Personal and add changes to this tab that will be seen only by you. Learn more ›
×
You can save this tab as Personal to edit and correct it or add notes. All changes will be seen only by you. Learn more »
save as personal
new!
launch autoscroll
font size
0
reset
how to read this tab
guitar tuner
Autoscroll
slow
fast
+/-
esc
set tempo
stop
Afinación normal: E-A-D-G-B-e
Escala: D Mayor
___________________________________________________________________________
 | [0:00] Introducción ||||
 --------------------------

 - Guitarras [0:01]

   B                       G           A
e|-------------------------------------------------
B|-------------------------------------------------
G|-------------------------------------------------
D|-9-----9-----9-----9-----5-----5-----7-----7-----
A|-9---9-9---9-9---9-9-9-9-5---5-5-5-5-7---7-7-7-7-
E|-7---7-7---7-7---7-7-7-7-3---3-3-3-3-5---5-5-5-5-
       .     .     .   . .     .   . .     .   . . P.M.
   B                       G           F#
e|-------------------------------------------------
B|-------------------------------------------------
G|-------------------------------------------------
D|-9-----9-----9-----9-----5-----5-----4-----4-----
A|-9---9-9---9-9---9-9-9-9-5---5-5-5-5-4---4-4-4-4-
E|-7---7-7---7-7---7-7-7-7-3---3-3-3-3-2---2-2-2-2-
       .     .     .   . .     .   . .     .   . . P.M.
   B                       G           A
e|-------------------------------------------------
B|-------------------------------------------------
G|-------------------------------------------------
D|-9-----9-----9-----9-----5-----5-----7-----7-----
A|-9---9-9---9-9---9-9-9-9-5---5-5-5-5-7---7-7-7-7-
E|-7---7-7---7-7---7-7-7-7-3---3-3-3-3-5---5-5-5-5-
       .     .     .   . .     .   . .     .   . . P.M.
   B                       G           F#
e|-------------------------------------------------
B|-------------------------------------------------
G|-------------------------------------------------
D|-9-----9-----9-----9-----5---5-------2---2-------
A|-9---9-9---9-9---9-9-9-9-5---5-------2---2-------
E|-7---7-7---7-7---7-7-7-7-3---3-------4---4-------
       .     .     .   . . P.M.

 - Violin [0:00]

e|-------10-------10-------10-------------------------------------
B|-10-12----10-12----10-12----10-12---10------------------10------
G|----------------------------------------12-12-12--11-12-----9-9-
D|----------------------------------------------------------------
A|----------------------------------------------------------------
E|----------------------------------------------------------------

e|-------10-------10-------10-------------------------------------
B|-10-12----10-12----10-12----10-12---10--------------------------
G|----------------------------------------12-12-12--11-12---11----
D|----------------------------------------------------------------
A|----------------------------------------------------------------
E|----------------------------------------------------------------

 ____________________
 || [0:15] Versos |||
 --------------------

   B
e|-------------------------------------------------
B|-------------------------------------------------
G|-------------------------------------------------
D|-9-----9-----9-----9-----9-----9-----9-----9-----
A|-9---9-9---9-9---9-9---9-9---9-9---9-9---9-9---9-
E|-7---7-7---7-7---7-7---7-7---7-7---7-7---7-7---7-
       .     .     .     .     .     .     .     . P.M.
   A           E           F#
e|-------------------------------------------------
B|-------------------------------------------------
G|-------------------------------------------------
D|-7-----7-----2-----2-----4-----4-----4-----4-----
A|-7---7-7---7-2---2-2---2-4---4-4---4-4---4-4---4-
E|-5---5-5---5-0---0-0---0-2---2-2---2-2---2-2---2-
       .     .     .     .     .     .     .     . P.M.
   E                       D
e|-------------------------------------------------
B|-------------------------------------------------
G|-------------------------7-----7-----7-----7-----
D|-2-----2-----2-----2-----7---7-7---7-7---7-7---7-
A|-2---2-2---2-2---2-2---2-5---5-5---5-5---5-5---5-
E|-0---0-0---0-0---0-0---0-------------------------
       .     .     .     .     .     .     .     . P.M.
   F#                                  A
e|-------------------------------------------------
B|-------------------------------------------------
G|-------------------------------------------------
D|-4-----4-----4-----4-----4-----------7-----------
A|-4---4-4---4-4---4-4---4-4-----------7-----------
E|-2---2-2---2-2---2-2---2-2-----------5-----------
       .     .     .     . P.M.
   B
e|-------------------------------------------------
B|-------------------------------------------------
G|-------------------------------------------------
D|-9-----9-----------------9-----9-----9-----9-----
A|-9-----9---------------9-9---9-9---9-9---9-9---9-
E|-7-----7---------------7-7---7-7---7-7---7-7---7-
                         .     .     .     .     . P.M.
   A           E           F#
e|-------------------------------------------------
B|-------------------------------------------------
G|-------------------------------------------------
D|-7-----7-----2-----2-----4-----4-----4-----4-----
A|-7---7-7---7-2---2-2---2-4---4-4---4-4---4-4---4-
E|-5---5-5---5-0---0-0---0-2---2-2---2-2---2-2---2-
       .     .     .     .     .     .     .     . P.M.
   E                       D
e|-------------------------------------------------
B|-------------------------------------------------
G|-------------------------7-----7-----7-----7-----
D|-2-----2-----2-----2-----7---7-7---7-7---7-7---7-
A|-2---2-2---2-2---2-2---2-5---5-5---5-5---5-5---5-
E|-0---0-0---0-0---0-0---0-------------------------
       .     .     .     .     .     .     .     . P.M.
   F#                                  A
e|-------------------------------------------------
B|-------------------------------------------------
G|-------------------------------------------------
D|-4-----4-----4-----4-----4-----------7-----------
A|-4---4-4---4-4---4-4---4-4-----------7-----------
E|-2---2-2---2-2---2-2---2-2-----------5-----------
       .     .     .     . P.M

 __________________
 ||| [0:46] Coro ||
 ------------------

         D     C#          B
e|-------------------------------------------------
B|-------------------------------------------------
G|-------7-----6-----------4-----4-----4-----4---4-
D|-------7-----6-----------4---4-4---4-4---4-4---4-
A|-------5-----4-----------2---2-2---2-2---2-2---2-
E|-------------------------------------------------
                               .     .     .     . P.M.
   G           A           D           F#
e|-------------------------------------------------
B|-------------------------------------------------
G|-------------------------7-----7-----------------
D|-5-----5-----7-----7-----7---7-7---7-4-----4-----
A|-5---5-5---5-7---7-7---7-5---5-5---5-4---4-4---4-
E|-3---3-3---3-5---5-5---5-------------2---2-2---2-
       .     .     .     .     .     .     .     . P.M.
   D           C#          D           B
e|-------------------------------------------------
B|-------------------------------------------------
G|-7-----7-----6-----6-----7-----7-----4-----4-----
D|-7---7-7---7-6---6-6---6-7---7-7---7-4-----4-----
A|-5---5-5---5-4---4-4---4-5---5-5---5-2-----2-----
E|-------------------------------------------------
       .     .     .     .     .     . P.M.
               A           B
e|-------------------------------------------------
B|-------------------------------------------------
G|-4-----------2-----------4-4-4-4-4-4-4-----------
D|-4-----------2-----------4-4-4-4-4-4-4-----------
A|-2-----------0-----------2-2-2-2-2-2-2-----------
E|-------------------------------------------------

D|------9---------- [Riff que se toca en el coro, durante el]
A|-9h12---9b10r---- [primer acorde B. No estoy muy seguro de]
E|--------------10- [que esté correcto, pero suena bien.    ]

[1:01] Se repite la introducción
[1:16] Se repite el verso (la primera parte)
[1:31] Se repite el coro
[1:46] Se repite la introducción

 ____________________
 |||| [2:02] Bridge |
 --------------------

 - Guitarra en el fondo [2:02]
 [Todo lo que viene se toca con palm mute]

   E                       G           A
e|-------------------------------------------------
B|-------------------------------------------------
G|-------------------------------------------------
D|-2-2-2-2-2-2-2-2-2-2-2-2-5-5-5-5-5-5-7-7-7-7-7-7-
A|-2-2-2-2-2-2-2-2-2-2-2-2-5-5-5-5-5-5-7-7-7-7-7-7-
E|-0-0-0-0-0-0-0-0-0-0-0-0-3-3-3-3-3-3-5-5-5-5-5-5-

   E     F#    G     A     B     A     G     F#
e|-------------------------------------------------
B|-------------------------------------------------
G|-------------------------------------------------
D|-2-2-2-4-4-4-5-5-5-7-7-7-9-9-9-7-7-7-5-5-5-4-4-4-
A|-2-2-2-4-4-4-5-5-5-7-7-7-9-9-9-7-7-7-5-5-5-4-4-4-
E|-0-0-0-2-2-2-3-3-3-5-5-5-7-7-7-5-5-5-3-3-3-2-2-2-

   E
e|-------------------------
B|-------------------------
G|-------------------------
D|-2-2-2-2-2-2-2-----------
A|-2-2-2-2-2-2-2-----------
E|-0-0-0-0-0-0-0-----------

   E                       G           A
e|-------------------------------------------------
B|-------------------------------------------------
G|-------------------------------------------------
D|-2-2-2-2-2-2-2-2-2-2-2-2-5-5-5-5-5-5-7-7-7-7-7-7-
A|-2-2-2-2-2-2-2-2-2-2-2-2-5-5-5-5-5-5-7-7-7-7-7-7-
E|-0-0-0-0-0-0-0-0-0-0-0-0-3-3-3-3-3-3-5-5-5-5-5-5-

   E     F#    G     A     B     A     G     F#
e|-------------------------------------------------
B|-------------------------------------------------
G|-------------------------------------------------
D|-2-2-2-4-4-4-5-5-5-7-7-7-9-9-9-7-7-7-5-5-5-4-4-4-
A|-2-2-2-4-4-4-5-5-5-7-7-7-9-9-9-7-7-7-5-5-5-4-4-4-
E|-0-0-0-2-2-2-3-3-3-5-5-5-7-7-7-5-5-5-3-3-3-2-2-2-

   E
e|-------------------------------------------------
B|-------------------------------------------------
G|-------------------------------------------------
D|-2-2-2-2-2-2-2-2-2-2-2-2-2-2-2-2-2-2-2-2-2-2-2-2-
A|-2-2-2-2-2-2-2-2-2-2-2-2-2-2-2-2-2-2-2-2-2-2-2-2-
E|-0-0-0-0-0-0-0-0-0-0-0-0-0-0-0-0-0-0-0-0-0-0-0-0-

e|-------------
B|-------------
G|-------------
D|-2-2-2-2-2-2-
A|-2-2-2-2-2-2-
E|-0-0-0-0-0-0-

   G                       A#          C
e|-------------------------------------------------
B|-------------------------------------------------
G|-------------------------------------5-5-5-5-5-5-
D|-5-5-5-5-5-5-5-5-5-5-5-5-8-8-8-8-8-8-5-5-5-5-5-5-
A|-5-5-5-5-5-5-5-5-5-5-5-5-8-8-8-8-8-8-3-3-3-3-3-3-
E|-3-3-3-3-3-3-3-3-3-3-3-3-6-6-6-6-6-6-------------

   G     A     A#    C     D     C     A#    A
e|-------------------------------------------------
B|-------------------------------------------------
G|-------------------5-5-5-7-7-7-5-5-5-------------
D|-5-5-5-7-7-7-8-8-8-5-5-5-7-7-7-5-5-5-8-8-8-7-7-7-
A|-5-5-5-7-7-7-8-8-8-3-3-3-5-5-5-3-3-3-8-8-8-7-7-7-
E|-3-3-3-5-5-5-6-6-6-------------------6-6-6-5-5-5-

   G
e|-------------------------
B|-------------------------
G|-------------------------
D|-5-5-5-5-5-5-5-5-5-5-5-5-
A|-5-5-5-5-5-5-5-5-5-5-5-5-
E|-3-3-3-3-3-3-3-3-3-3-3-3-

   A                     G
e|-------------------------
B|-------------------------
G|-------------------------
D|-7---7-------------7---5- x7
A|-7---7-7---7-7---7-7---5-
E|-5---5-5---5-5---5-5---3-
         .   . .   . P.M.

   E     D     B     G
e|--------------------------
B|--------------------------
G|-9-----7-----------12-----
D|-9-----7-----9-----12-----
A|-7-----5-----9-----10-----
E|-------------7------------

   B                     A
e|-------------------------
B|-------------------------
G|-------------------------
D|-9---9-------------9---7- x3
A|-9---9-9---9-9---9-9---7-
E|-7---7-7---7-7---7-7---5-
         .   . .   . P.M.

   B     A     G     F#
e|-------------------------
B|-------------------------
G|-------------------------
D|-9-----7-----5-----4-----
A|-9-----7-----5-----4-----
E|-7-----5-----3-----2-----

   A                     G
e|-------------------------
B|-------------------------
G|-------------------------
D|-7---7-------------7---5- x7
A|-7---7-7---7-7---7-7---5-
E|-5---5-5---5-5---5-5---3-
         .   . .   . P.M.

   E     D     B     G
e|--------------------------
B|--------------------------
G|-9-----7-----------12-----
D|-9-----7-----9-----12-----
A|-7-----5-----9-----10-----
E|-------------7------------

   B                     A
e|-------------------------
B|-------------------------
G|-------------------------
D|-9---9-------------9---7- x3
A|-9---9-9---9-9---9-9---7-
E|-7---7-7---7-7---7-7---5-
         .   . .   . P.M.

 - Violin [2:02]

e|--------------------------7-7-7-7----7-10-7-7-7-----
B|-------------8-------8-10---------10----------------
G|-9-9-9-9-7-9---9-9-9------------------------------7-
D|----------------------------------------------------
A|----------------------------------------------------
E|----------------------------------------------------

e|---------------------------7-7-7---------------------
B|-------7---7-8-8-8-10-8-10-------10-8-7-7-10-8-7-----
G|-9-9-9---9---------------------------------------9-7-
D|-----------------------------------------------------
A|-----------------------------------------------------
E|-----------------------------------------------------

e|-------------------------
B|-------------------------
G|---9-9-9-7-9-9-----------
D|-9-----------------------
A|-------------------------
E|-------------------------

 - Guitarra [2:24]

e|-------------------------------------10-10-10-10----10-13-10-10-10-------
B|-------------------11----------11-13-------------13----------------------
G|-12-12-12-12-10-12----12-12-12----------------------------------------10-
D|-------------------------------------------------------------------------
A|-------------------------------------------------------------------------
E|-------------------------------------------------------------------------

e|-------------------------------------10-10-10----------------------------
B|----------10----10-11-11-11-13-11-13----------13-11-10-10-13-11-10-------
G|-12-12-12----12----------------------------------------------------12-10-
D|-------------------------------------------------------------------------
A|-------------------------------------------------------------------------
E|-------------------------------------------------------------------------

e|-------------------------------
B|---------------11--------------
G|------12-12-12----12-----------
D|-12----------------------------
A|-------------------------------
E|-------------------------------

[3:21] Se repite el verso (la primera parte; la primera nota B se toca sólo
                           3 veces, escucha la canción para que entiendas)
[3:36] Se repite el coro muchas veces, hasta que se desvanece...
Suggest correction
Give kudos to tab author, rate the tab!
1 2 3 4 5
comments
print report bad tab
guest
Wanna post a correction for this tab? Suggest correction