Oops, an error
Loading. Please wait.

Kelpie Bass

121 views 1 this week
no commentswrite comment
1 2 3 4 5
2 more votes to show rating
add to favorites
launch autoscroll
font size
0
reset
guitar tuner
×
Best way to learn
"Kelpie"
Autoscroll
slow
fast
+/-
esc
set tempo
stop
los tiempos no los sake bien pero las notas se escuchan bien, no esta difiil la cancion....
nada mas sigan a la guitarra, si no les gusta como la sake con esto se pueden basar y hacer
arreglos y si les keda mejor subanla al atame pa' ke aia mejor calidad.
saludos a todos y hay ta la rola

INTRO

G|----------------------------------------------------------------------------------
D|----------------------------------------------------------------------------------
A|-2-22-22-22-22-22-22---------------------2-22-22-22-22-22-22----------------------
E|---------------------3-33-33-3-5-55-55-5---------------------3-33-33-3-22-22-22-22

G|-----------------------------------------------------------------------
D|-----------------------------------------------------------------------
A|-2-22-22-22-22-22-22---------------------2-22-22-22-22-22-22-----------
E|---------------------3-33-33-3-5-55-55-5---------------------33---33332

VERSO 1

G|---------------------------------------------------------------------------------------------
D|---------------------------------------------------------------------------------------------
A|-2-22-22-22-22-22-22-22-00-00---------------------------------55-55-55---------------------00
E|------------------------------00-00-2-22-22-22-22-00-00-00-00-----------22-22-22-22-22--2----

VERSO 2

G|---------------------------------------------------------------------------------------------------------
D|---------------------------------------------------------------------------------------------------------
A|-2-22-22-22-22-22-22-22-00-00---------------------------------55-55-55---------------------------000000000
E|------------------------------00-00-2-22-22-22-22-00-00-00-00-----------22-22-22-22-22--2-2222222---------

CORO

G|--------------------------------------------------------------------------------------
D|---------------------------------------00-00-0----------------------------------------
A|-5-4/2-2-22-22-22-22-22--------00 00 00-----------5-55-55-44-44-44--555-2---0--2222222
E|-----------------------33-33-33---------------2 22------------------------------------

INTRO

VERSO 3 ( IGUAL QUE VERSO 2)

CORO

INTRO

ANTES DEL SOLO

G|----------------------------------------------------------------------
D|----------------------------------------------------------------------
A|-----------------------------------------22222------------------------ X 2
E|--00000-33333-55555-00000-222233333355555-----555553333322222000000000

G|---------------------------------------------------------------------------
D|---------------------------------------------------------------------------
A|------------11111-----------------33333-55555-33333-11111-00000-33333------
E|-00000-33333-----33333-55555-66666------------------------------------33333

SOLO ( NO LE SAKADAO BIEN AUN PERO TOKO ESTO D IMPROVISO)

G|-----------------------------------------------------------------------------
D|-----------------------------------------------------------------------------
A|-0 00-00-00-00-00-00-00-00-00-00-00-00-00-22-22-22-22-22-22-0-222-22-22-22-22
E|--------------------3--------------------------------------------------------

G|-------------------------------------------
D|-------------------------------------------
A|-0 00-00-00-00-00-00-00-00-00-00-00-00-00--
E|--------------------3----------------------

VERSO 4

G|---------------------------------------------------------------------------------------------------------
D|---------------------------------------------------------------------------------------------------------
A|-2------------33-00-00-00-00---------------------------------55-55-55---------------------------000000000
E|------------------------------00-00-2-22-22-22-22-00-00-00-00-----------22-22-22-22-22--2-2222222---------

CORO X 2

pues esto jue todo espero les guste si es ke alguien se digna a leer mi humilde transcripcio ( diablos cre que deje
de ser humilde cuando me dije humilde a mi mismo....como sea....SUERTE)

hay ta mi mail arriba pa' cualquier cosa y si quieren agregarme al msn  AGREGUENME AKA  Pschilo40@
Suggest correction
Give kudos to tab author, rate the tab!
1 2 3 4 5
comments
print report bad tab
guest
You may want to rate the tab now too:
select rating
Wanna post a correction for this tab? Suggest correction