Oops, an error
Loading. Please wait.

La Cantata Del Diablo (Missit Me Dominus) Tab

version 1
version 1

Whole song

95 views 1 this week
no commentswrite comment
1 2 3 4 5
3 more votes to show rating
add to favorites
launch autoscroll
font size
0
reset
how to read this tab
guitar tuner
Autoscroll
slow
fast
+/-
esc
set tempo
stop
Help us to improve Ultimate-Guitar.com Take our survey!
×
Aqui estan las bases para que un gitarrista profesional
sace la canción, que canción, que Cantata.

0:14 Intro

e----------------------------------------- x2
B-----------------------------------------
G----10-------10-12-9----10---------------
D-12--------12---------12-------12-10-12--
A------12-12---------------12-12----------
E-----------------------------------------

e--------------------------------------------------------- x2
B----------------------------------11-11-11-9-9-9-8-9-8-6-
G-10--10-10-10--10-10-11-13-11-10-------------------------
D---------------------------------------------------------
A---------------------------------------------------------
E---------------------------------------------------------

1:35 Piano

e-----5----5--5---------5-----5-5---
B--5-6--5-6----6-5---5-6---5-6---5--
G-7----7-----7------7-----7----7----
D-----------------------------------
A-----------------------------------
E-----------------------------------

2:08 Violin

e-----------3---------------3---- x4 (las últimas dos veces mas agudo)
B--3-4-3-3-4-4-3---3-4-3-3-4-3---
G-5-----5---------5-----5--------
D--------------------------------
A--------------------------------
E--------------------------------

3:55 (por Nestor)

e-------------------------------------------------
B-------------------------------------------------
G-------------------------------------------------
D-11--12-9-12-11--13-16-16-16-13-12---12------12--
A-----------------------------------13--13-12-----
E-------------------------------------------------

e---------------------------------------
B---------------------------------------
G---------------------------------------
D-11--12-9-12-11------------------------
A-----------------12-11-12-11-9-12-11-9-
E---------------------------------------

17:54 (por Nestor)

Todas las cuerdas al aire


***MAGOVITOROZ***
Suggest correction
Give kudos to tab author, rate the tab!
1 2 3 4 5
comments
print report bad tab
guest
You may want to rate the tab now too:
select rating
Wanna post a correction for this tab? Suggest correction