Oops, an error
Loading. Please wait.

La Insulina De La Barataria Tab

version 1
version 1

Whole song

67 views 1 this week
no commentswrite comment
1 2 3 4 5
3 more votes to show rating
add to favorites
launch autoscroll
font size
0
reset
how to read this tab
guitar tuner
Autoscroll
slow
fast
+/-
esc
set tempo
stop
Help us to improve Ultimate-Guitar.com Take our survey!
×
Intro: lam  hasta que termine el siguiente solo  --->


Violín:

1|--------------------------------------------------------------------------|
2|------------8-------------------------------------8-----------------------|
3|-9-9-7-9-10---7-7-7-7-7----7-9-7-------9-9-7-9-10---7------7-9-7----------|
4|------------------------10-------10-7-----------------9-10-------10-7-10-7|
5|--------------------------------------------------------------------------|
6|--------------------------------------------------------------------------|

1|--------------------------------------------------------------------------|
2|------------8-------------------------------------8-----------------------|
3|-9-9-7-9-10---7-7-7-7-7----7-9-7-------9-9-7-9-10---7------7-9-7----------|
4|------------------------10-------10-7-----------------9-10-------10-7-10-7|
5|--------------------------------------------------------------------------|
6|--------------------------------------------------------------------------|

De ahí estalla la parte rítmica con los siguientes acordes: ----> ( 00:23 )

[ch]C - [ch]Gm DO - SOL[/ch] - LAm[/ch]

mientras va el siguiente solo de flauta un poco más agudo que el del violín.


1|------------------------15----------------------------------------|
2|-15-/-17-15-17-15-17-18----15-15-15-15-15----15-17-15-------------|
3|------------------------------------------17----------17-14-------|
4|------------------------------------------------------------------|
5|------------------------------------------------------------------|
6|------------------------------------------------------------------|

1|------------------------15----------------------------------------|
2|-15-/-17-15-17-15-17-18----15-------15-17-15----------------------|
3|------------------------------16-17----------17-14-17-14----------|
4|------------------------------------------------------------------|
5|------------------------------------------------------------------|
6|------------------------------------------------------------------|

se repite...

1|------------------------15----------------------------------------|
2|-15-/-17-15-17-15-17-18----15-15-15-15-15----15-17-15-------------|
3|------------------------------------------17----------17-14-------|
4|------------------------------------------------------------------|
5|------------------------------------------------------------------|
6|------------------------------------------------------------------|

1|------------------------15----------------------------------------|
2|-15-/-17-15-17-15-17-18----15-------15-17-15----------------------|
3|------------------------------16-17----------17-14-17-14----------|
4|------------------------------------------------------------------|
5|------------------------------------------------------------------|
6|------------------------------------------------------------------|

ahora van los siguientes acordes------> (00:39)


[ch]C - [ch]G - DO - SOL - DO - SOL[/ch] - LAm[/ch]


acompañado del siguiente solo de flauta ----->

1|----------------------------------------------------------------------|
2|--15-/-17-15-17-15-------15----15-/-17-15-17-15-------15--------------|
3|-------------------16-17----14------------------16-17-----14----------|
4|----------------------------------------------------------------------|
5|----------------------------------------------------------------------|
6|----------------------------------------------------------------------|

1|----------------------------------------------------------------------|
2|--15-/-17-15-17-15-------15----17-15----------------------------------|
3|-------------------16-17----14-------17-16-14----14----14-------------|
4|----------------------------------------------17----17----------------|
5|----------------------------------------------------------------------|
6|----------------------------------------------------------------------|


de ahi se repite ( no olvides los acordes que acompañan )

1|----------------------------------------------------------------------|
2|--15-/-17-15-17-15-------15----15-/-17-15-17-15-------15--------------|
3|-------------------16-17----14------------------16-17-----14----------|
4|----------------------------------------------------------------------|
5|----------------------------------------------------------------------|
6|----------------------------------------------------------------------|

1|----------------------------------------------------------------------|
2|--15-/-17-15-17-15-------15----17-15----------------------------------|
3|-------------------16-17----14-------17-16-14----14----14-------------|
4|----------------------------------------------17----17----------------|
5|----------------------------------------------------------------------|
6|----------------------------------------------------------------------|


Luego se repite todo desde que empezó la parte (00:23) pero en el intermedio hay un desacanso 
donde se escuchan las percusiones mantienes >>> lam 

--- 4 veces --   te vas de largo
1|------------*------------------------------------------------------|
2|------------*------------------------------------------------------|
3|-----5------*--5-5-5-5-5-5-5-5...----------------------------------|
4|--7--5--5---*--5-5-5-5-5-5-5-5...-5-5/7-7-7------------------------|
5|--7--3--5---*--3-3-3-3-3-3-3-3...-5-5/7-7-7------------------------|
6|--5-----3---*---------------------3-3/5-5-5------------------------|


y repites la parte con distorsión.


luego---->>>


1|----------------------------------------------------------------------|
2|--15-/-17-15-17-15-------15----15-/-17-15-17-15-------15--------------|
3|-------------------16-17----14------------------16-17-----14----------|
4|----------------------------------------------------------------------|
5|----------------------------------------------------------------------|
6|----------------------------------------------------------------------|

1|----------------------------------------------------------------------|
2|--15-/-17-15-17-15-------15----17-15----------------------------------|
3|-------------------16-17----14-------17-16-14----14----14-------------|
4|----------------------------------------------17----17----------------|
5|----------------------------------------------------------------------|
6|----------------------------------------------------------------------|


de ahi se repite ( no olvides los acordes que acompañan )

1|----------------------------------------------------------------------|
2|--15-/-17-15-17-15-------15----15-/-17-15-17-15-------15--------------|
3|-------------------16-17----14------------------16-17-----14----------|
4|----------------------------------------------------------------------|
5|----------------------------------------------------------------------|
6|----------------------------------------------------------------------|

1|----------------------------------------------------------------------|
2|--15-/-17-15-17-15-------15----17-15----------------------------------|
3|-------------------16-17----14-------17-16-14----14----14-------------|
4|----------------------------------------------17----17----------------|
5|----------------------------------------------------------------------|
6|----------------------------------------------------------------------|


lUEGO lOS SIGUIENTE ACORDES ACOMPAÑADOS DEL SOLO.

[ch]C - [ch]Gm DO - SOL[/ch] - LAm[/ch]


1|------------------------15----------------------------------------|
2|-15-/-17-15-17-15-17-18----15-15-15-15-15----15-17-15-------------|
3|------------------------------------------17----------17-14-------|
4|------------------------------------------------------------------|
5|------------------------------------------------------------------|
6|------------------------------------------------------------------|

1|------------------------15----------------------------------------|
2|-15-/-17-15-17-15-17-18----15-------15-17-15----------------------|
3|------------------------------16-17----------17-14-17-14----------|
4|------------------------------------------------------------------|
5|------------------------------------------------------------------|
6|------------------------------------------------------------------|

se repite...

1|------------------------15----------------------------------------|
2|-15-/-17-15-17-15-17-18----15-15-15-15-15----15-17-15-------------|
3|------------------------------------------17----------17-14-------|
4|------------------------------------------------------------------|
5|------------------------------------------------------------------|
6|------------------------------------------------------------------|

1|------------------------15----------------------------------------|
2|-15-/-17-15-17-15-17-18----15-------15-17-15----------------------|
3|------------------------------16-17----------17-14-17-14----------|
4|------------------------------------------------------------------|
5|------------------------------------------------------------------|
6|------------------------------------------------------------------|


Y POR ÚLTIMO
1|----------------------------------------------------------------------|
2|--15-/-17-15-17-15-------15----15-/-17-15-17-15-------15--------------|
3|-------------------16-17----14------------------16-17-----14----------|
4|----------------------------------------------------------------------|
5|----------------------------------------------------------------------|
6|----------------------------------------------------------------------|

1|----------------------------------------------------------------------|
2|--15-/-17-15-17-15-------15----17-15----------------------------------|
3|-------------------16-17----14-------17-16-14----14----14-------------|
4|----------------------------------------------17----17----------------|
5|----------------------------------------------------------------------|
6|----------------------------------------------------------------------|


de ahi se repite ( no olvides los acordes que acompañan
 [ch]C - [ch]G - DO - SOL - DO - SOL[/ch] - LAm[/ch] )

1|----------------------------------------------------------------------|
2|--15-/-17-15-17-15-------15----15-/-17-15-17-15-------15--------------|
3|-------------------16-17----14------------------16-17-----14----------|
4|----------------------------------------------------------------------|
5|----------------------------------------------------------------------|
6|----------------------------------------------------------------------|

1|----------------------------------------------------------------------|
2|--15-/-17-15-17-15-------15----17-15----------------------------------|
3|-------------------16-17----14-------17-16-14----14----14-------------|
4|----------------------------------------------17----17----------------|
5|----------------------------------------------------------------------|
6|----------------------------------------------------------------------|

Es una cación sencilla y de buen ritmo, espero les sirva.

Escribanme cualquier comentario sirdrake007@
Suggest correction
Give kudos to tab author, rate the tab!
1 2 3 4 5
comments
print report bad tab
guest
You may want to rate the tab now too:
select rating
Wanna post a correction for this tab? Suggest correction