Oops, an error
Loading. Please wait.

La Marcha Turca Tab

version 2
version 2

Whole song

193 views 6 this week
no commentswrite comment
1 2 3 4 5
3 more votes to show rating
add to favorites
×
Save as Personal and add changes to this tab that will be seen only by you. Learn more ›
×
You can save this tab as Personal to edit and correct it or add notes. All changes will be seen only by you. Learn more »
save as personal
new!
launch autoscroll
font size
0
reset
how to read this tab
guitar tuner
Autoscroll
slow
fast
+/-
esc
set tempo
stop
Aquí esta el solo de Jorge Salán completo, o
por lo menos la marcha turca completa, que
es una composición de Mozart.
No encontré el tab por ningún lado así que decidí
hacerlo yo mismo. Estoy seguro de que esas
son las notas, pero si se les hace más fácil
tocarlo en otro traste allá ustedes.
Esta es la manera en que se me hizo más fácil.


e ----------------------0---------7-5-4-5-7-5-4-5-8-
B --------------3-1-0-1----6-5-4--------------------
G --4-2-1-2-5---------------------------------------
D --------------------------------------------------
A --------------------------------------------------
E --------------------------------------------------

e -5--8?-7--5-----5--7--5-----5--7--5---------------
B -------------8-----------8-----------8?-7--5------
G --------------------------------------------------
D --------------------------------------------------
A --------------------------------------------------
E --------------------------------------------------

e --------3--3--5-3--------------3--3--5-3----------
B --5--6------------6-5-3--5--6------------6-5-3----
G --------------------------------------------------
D --------------------------------------------------
A --------------------------------------------------
E --------------------------------------------------

e -------0--0--1-0---------------0--0--1-0----------
B -1--3------------3-1-0---1--3------------3-1-0----
G --------------------------------------------------
D --------------------------------------------------
A --------------------------------------------------
E --------------------------------------------------

e ----------------------0---------7-5-4-5-7-5-4-5-8-
B --------------3-1-0-1----6-5-4--------------------
G --4-2-1-2-5---------------------------------------
D --------------------------------------------------
A --------------------------------------------------
E --------------------------------------------------

e --5--7--8--7--5--4--5-----------------------------
B -----------------------5--6--3--1?-1/0/1----------
G ------------------------------------------2-------
D --------------------------------------------------
A --------------------------------------------------
E --------------------------------------------------

e --5--7--9----5--7--9--7--5-----------5--7----------
B ---------------------------9--7--9--------9--5----
G --------------------------------------------------
D --------------------------------------------------
A --------------------------------------------------
E --------------------------------------------------

e --5--7--9----5--7--9--7--5--------7--------5------
B ---------------------------9--7-----9--5----------
G --------------------------------------------------
D --------------------------------------------------
A --------------------------------------------------
E --------------------------------------------------


Aquí esta la segunda parte, la rápida, que nadie a podido sacar, o no
han querido poner, que es lo bueno de la canción. No es fácil, pero si le
practican lo sacarán a la perfección.


e --9-10-9-7----7--------------------------------
B -----------10---10-9-7-10-9-7-6-7-9------------
G ------------------------------------6-8-10-----
D -----------------------------------------------
A -----------------------------------------------
E -----------------------------------------------

e ------------------------9-8-9-8-9-10-9-7----7---------------
B -----------9-10-9-10-12------------------10---10-9-7-10-9-7-
G --11-10-11--------------------------------------------------
D ------------------------------------------------------------
A ------------------------------------------------------------
E ------------------------------------------------------------

e --------------------------------------
B --5-7-9-5-------------7---------------
G ----------6-8-9-6-8-9---8-5-6-8-5-6---
D --------------------------------------
A --------------------------------------
E --------------------------------------


e ----------------------------14-16-17-17-16-14-----
B -17-15-14----------14-15-17-------------------17--
G ----------16-14-16--------------------------------
D --------------------------------------------------
A --------------------------------------------------
E --------------------------------------------------

e ------------------------------------------
B -17-15-14----14-17----14----15------------
G ----------16-------14----16----13-16-14---
D ------------------------------------------
A ------------------------------------------
E ------------------------------------------

Este arreglo es como lo toca Jorge Salan, pero solo
la marcha turca, lo demas de su solo siempre lo toca
diferente y es un arreglo muy complejo como para tabularlo.
Es facil saber cuando se repiten las frases, fuera de eso
este tab esta completo.
Califiquen por favor.
Cualquier duda, comentario, correción, petición o nada más
para hablar a mi correo:

soad244@

VIVA MÄGO DE OZ CABRONES!!!
Suggest correction
Give kudos to tab author, rate the tab!
1 2 3 4 5
comments
print report bad tab
guest
Wanna post a correction for this tab? Suggest correction