Oops, an error
Loading. Please wait.

La Marcha Turca Tab

version 3
version 3

Whole song

139 views 1 this week
no commentswrite comment
1 2 3 4 5
3 more votes to show rating
add to favorites
launch autoscroll
font size
0
reset
how to read this tab
guitar tuner
Autoscroll
slow
fast
+/-
esc
set tempo
stop
Help us to improve Ultimate-Guitar.com Take our survey!
×
Aquí está el tab correcto de la interpretación(entera) de Mago
en guitarra de esta composición de Wolfgang Amadeus Mozart...
Esta transcripción es 100% mía asi que si ven alguna así en otro
sitio, no es más que una copia, bueno, aquí va:

Marcha Turca

1er Movimiento:
e:|------------------------0-|---------7-5-4-5-7-5-4-5-|-8~~
B:|------------1---3-1-0-1---|-6-5-4-5-----------------|----
G:|----4-2-1-2---------------|-------------------------|----
D:|--------------------------|-------------------------|----


e:|-5-8-7-5---5-7-5---5h7p5-------
B:|---------8-------8-------8-7-5~
G:|-------------------------------
D:|-------------------------------


e:|------------------------0-|---------7-5-4-5-7-5-4-5-|-8~~
B:|------------1---3-1-0-1---|-6-5-4-5-----------------|----
G:|----4-2-1-2---------------|-------------------------|----
D:|--------------------------|-------------------------|----


e:|-5-8-7-5---5-7-5---5h7p5-------
B:|---------8-------8-------8-7-5~
G:|-------------------------------
D:|-------------------------------


E:|-----3-3-5-3-------|x2   E:|-------------------|x2
B:|-5-6---------6-5-3-|     B:|---3-5-5-6-5-3-----|
G:|-------------------|     G:|-5-------------5-4-|
D:|-------------------|     D:|-------------------|


e:|------------------------0-|---------7-5-4-5-7-5-4-5-|-8~~
B:|------------1---3-1-0-1---|-6-5-4-5-----------------|----
G:|----4-2-1-2---------------|-------------------------|----
D:|--------------------------|-------------------------|----

Puente:
e:|-5-7h8-7-5-4-5---------------------
B:|---------------5-6-----------------
G:|-------------------7-5-4h5p4h5p4-3~
D:|-----------------------------------


E:|-----3-3-5-3-------|x2   E:|-------------------|x2
B:|-5-6---------6-5-3-|     B:|---3-5-5-6-5-3-----|
G:|-------------------|     G:|-5-------------5-4-|
D:|-------------------|     D:|-------------------|


e:|------------------------0-|---------7-5-4-5-7-5-4-5-|-8~~
B:|------------1---3-1-0-1---|-6-5-4-5-----------------|----
G:|----4-2-1-2---------------|-------------------------|----
D:|--------------------------|-------------------------|----

Puente:
e:|-5-7h8-7-5-4-5---------------------
B:|---------------5-6-----------------
G:|-------------------7-5-4h5p4h5p4-3~
D:|-----------------------------------


2do Movimiento:
e:|-----7-9~---7h9p7-------------7-----
B:|-/10-----10-------10-9-7-9-10---9-5-
G:|------------------------------------
D:|------------------------------------


e:|-----7-9~---7h9p7--------7----------
B:|-/10-----10-------10-9-7---10-9-10~~
G:|------------------------------------
D:|------------------------------------


e:|-----7-9~---7h9p7-------------7-----
B:|-/10-----10-------10-9-7-9-10---9-5-
G:|------------------------------------
D:|------------------------------------


e:|-----7-9~---7h9p7--------7----------
B:|-/10-----10-------10-9-7---10-9-10~~
G:|------------------------------------
D:|------------------------------------

Acá se repite todo desde el principio una vez más
y luego empieza el 3er Movimiento o Solo

3er Movimiento: (Solo)
e:|-9-10-9-7----7-------------------------------
B:|----------10---10-9-7-10-9-7-6-7-9-6-----6---
G:|-------------------------------------6h8---6-
D:|---------------------------------------------
A:|---------------------------------------------
E:|---------------------------------------------

e:|---------5---5-7-9-7-9-7-9-10-9-7----7--------------
B:|-7-5-7-9---9----------------------10---10-9-7-10-9-7
G:|----------------------------------------------------
D:|----------------------------------------------------
A:|----------------------------------------------------
E:|----------------------------------------------------

e:|-----------------------------------
B:|-5-7-9-5-----5-----5-7-------------
G:|---------6-8---6-8-----8-5-6-8-5-6-
D:|-----------------------------------
A:|-----------------------------------
E:|-----------------------------------

e:|-9-10-9-7----7-------------------------------
B:|----------10---10-9-7-10-9-7-6-7-9-6-----6---
G:|-------------------------------------6h8---6-
D:|---------------------------------------------
A:|---------------------------------------------
E:|---------------------------------------------

e:|---------5---5-7-9-7-9-7-9-10-9-7----7--------------
B:|-7-5-7-9---9----------------------10---10-9-7-10-9-7
G:|----------------------------------------------------
D:|----------------------------------------------------
A:|----------------------------------------------------
E:|----------------------------------------------------

e:|-----------------------------------
B:|-5-7-9-5-----5-----5-7-------------
G:|---------6-8---6-8-----8-5-6-8-5-6-
D:|-----------------------------------
A:|-----------------------------------
E:|-----------------------------------

e:|------------------------------------------------------------6-7-
B:|-------------------7-9-10-10-9-7---------------------7-9-10-----
G:|-9-7-6-------6-7-9---------------9-9-7-6-------6-7-9------------
D:|-------9-7-9-----------------------------9-7-9------------------
A:|----------------------------------------------------------------
E:|----------------------------------------------------------------

e:|-------------------------------------------------------------
B:|-------------------7-9-10-10-9-7-----------------------------
G:|-9-7-6-------6-7-9---------------9-9-7-6---6-9---6---7-------
D:|-------9-7-9-----------------------------9-----7---9---6-9-7~
A:|-------------------------------------------------------------
E:|-------------------------------------------------------------

e:|-9-10-9-7----7-------------------------------
B:|----------10---10-9-7-10-9-7-6-7-9-6-----6---
G:|-------------------------------------6h8---6-
D:|---------------------------------------------
A:|---------------------------------------------
E:|---------------------------------------------

e:|---------5---5-7-9-7-9-7-9-7-9-10-9-10-9-10-9-
B:|-7-5-7-9---9----------------------------------
G:|----------------------------------------------
D:|----------------------------------------------
A:|----------------------------------------------
E:|----------------------------------------------

e:|-10-9-7---------7------7-9-------------
B:|--------10-9-10---9-10-----7-6-7-9-6-7-
G:|---------------------------------------
D:|---------------------------------------
A:|---------------------------------------
E:|---------------------------------------

e:|------------------------------------------------------------6-7-
B:|-------------------7-9-10-10-9-7---------------------7-9-10-----
G:|-9-7-6-------6-7-9---------------9-9-7-6-------6-7-9------------
D:|-------9-7-9-----------------------------9-7-9------------------
A:|----------------------------------------------------------------
E:|----------------------------------------------------------------

e:|-------------------------------------------------------------
B:|-------------------7-9-10-10-9-7-----------------------------
G:|-9-7-6-------6-7-9---------------9-9-7-6---6-9---6---7-------
D:|-------9-7-9-----------------------------9-----7---9---6-9-7~
A:|-------------------------------------------------------------
E:|-------------------------------------------------------------

e:|-9-10-9-7----7-------------------------------
B:|----------10---10-9-7-10-9-7-6-7-9-6-----6---
G:|-------------------------------------6h8---6-
D:|---------------------------------------------
A:|---------------------------------------------
E:|---------------------------------------------

e:|---------5---5-7-9-7-9-7-9-7-9-10-9-10-9-10-9-
B:|-7-5-7-9---9----------------------------------
G:|----------------------------------------------
D:|----------------------------------------------
A:|----------------------------------------------
E:|----------------------------------------------

e:|-10-9-7---------7------7-9-------------
B:|--------10-9-10---9-10-----7-6-7-9-6-7-
G:|---------------------------------------
D:|---------------------------------------
A:|---------------------------------------
E:|---------------------------------------

Time Break
2do Movimiento:
e:|-----7-9~---7h9p7-------------7-----
B:|-/10-----10-------10-9-7-9-10---9-5-
G:|------------------------------------
D:|------------------------------------


e:|-----7-9~---7h9p7--------7----------
B:|-/10-----10-------10-9-7---10-9-10~~
G:|------------------------------------
D:|------------------------------------


e:|-----7-9~---7h9p7-------------7-----
B:|-/10-----10-------10-9-7-9-10---9-5-
G:|------------------------------------
D:|------------------------------------


e:|-----7-9~---7h9p7--------7----------
B:|-/10-----10-------10-9-7---10-9-10~~
G:|------------------------------------
D:|------------------------------------


4to Movimiento: (Coda)
e:|-9--9-9~~9~~10-9-7-9-10-9-7-9-10~~~9-9-9-9-7~~~
B:|-----------------------------------------------
G:|-----------------------------------------------
D:|-----------------------------------------------

e:|-12-9~~9~~10-9-7-9-10-9-7-9-10~~~9-9-9-9-7~~~
B:|---------------------------------------------
G:|---------------------------------------------
D:|---------------------------------------------

e:|-7-----12-----9-----9----12----9-----------------
B:|---10~~---10~~--10~~--10----10---10~~~10--10-10~~
G:|-------------------------------------------------
D:|-------------------------------------------------

FIN

Muy buen tema, que lo disfruten,
Alla Turca completa de Mozart para uds!!
Suggest correction
Give kudos to tab author, rate the tab!
1 2 3 4 5
comments
print report bad tab
guest
You may want to rate the tab now too:
select rating
Wanna post a correction for this tab? Suggest correction