Oops, an error
Loading. Please wait.

La Santa Compaña Tab

version 2
version 2

Whole song

110 views 1 this week
no commentswrite comment
1 2 3 4 5
3 more votes to show rating
add to favorites
launch autoscroll
font size
0
reset
how to read this tab
guitar tuner
×
Best way to learn
"La Santa Compaña"
Autoscroll
slow
fast
+/-
esc
set tempo
stop
MÄGO DE OZ; LA SANTA CAMPAÑA (CARLITOS)
ESTA TABLATURA ES EL SOLO DE CARLITOS
ESPERO QUE LES GUSTE ESTÂ ESTA AL 100%

e|--5---------5-6-8-----------------5-6---5---------5-6-8-|
B|------5-6-8---------8------5-6--8----------5-6-8--------|
G|-------------------------7------------------------------|
D|--------------------------------------------------------|
A|--------------------------------------------------------|
E|--------------------------------------------------------|

e|----8---8---8----5----------------5--3---------------3--|
B|--8---8---8---8-----6---------6-8------5--------5-6-----|
G|------------------------7-7-7-------------5-5-5---------|
D|--------------------------------------------------------|
A|--------------------------------------------------------|
E|--------------------------------------------------------|

e|----5-------------------5--3----------------3-----------|
B|-------6------------6-8------5---------5-6--------------|
G|-----------7--7--7-------------5--5--5------------------|
D|--------------------------------------------------------|
A|--------------------------------------------------------|
E|--------------------------------------------------------|
   T       T       T       T       T       T       T
e|--------------------------------------------------------|
B|-10-3-6--10-3-6--10-3-6--10-3-6--10-3-6--10-3-6--10-3-6-|
G|--------------------------------------------------------|
D|--------------------------------------------------------|
A|--------------------------------------------------------|
E|--------------------------------------------------------|
   T       T       T       T       T       T       T
e|--------------------------------------------------------|
B|-10-3-6--10-5-8--10-5-8--10-5-8--10-5-8--10-5-8--10-5-8-|
G|--------------------------------------------------------|
D|--------------------------------------------------------|
A|--------------------------------------------------------|
E|--------------------------------------------------------|
   T       T       T       T       T       T       T
e|--------------------------------------------------------|
B|-10-5-8--10-5-8--10-3-6--10-3-6--10-3-6--10-3-6--10-3-6-|
G|--------------------------------------------------------|
D|--------------------------------------------------------|
A|--------------------------------------------------------|
E|--------------------------------------------------------|
   T       T       T
e|--------------------------------8-----------------------|
B|-10-3-6--10-3-6--10-3-6------8-----8--------------------|
G|--------------------------------------9-----------------|
D|----------------------------------------10--------------|
A|--------------------------------------------------------|
E|--------------------------------------------------------| Y FIN

T= TAPPING

ESPERO QUE LES GUSTE CABROOOOOOOOOOOOOOOOOOOOOOOONES
DUDAS O COMENTARIOS A MI CORREO DINAEL_CABRERA@
Y SI QUIEREN MAS TABS DE MAGO DE OZ SOLO PREGUNTENMELO
A MI CORREO LES ENVIE ESTA TRANCRIPCION DESDE XELA (GUATEMALA)
LOS SUPER CHIVOS GRECIAS Y HASTA SIEMPRE.
ATT. D.F.C.J
Suggest correction
Give kudos to tab author, rate the tab!
1 2 3 4 5
comments
print report bad tab
guest
You may want to rate the tab now too:
select rating
Wanna post a correction for this tab? Suggest correction