Oops, an error
Loading. Please wait.

La Santa Compaña Tab

version 3
version 3

Whole song

46 views 1 this week
no commentswrite comment
1 2 3 4 5
3 more votes to show rating
add to favorites
launch autoscroll
font size
0
reset
how to read this tab
guitar tuner
Autoscroll
slow
fast
+/-
esc
set tempo
stop
Help us to improve Ultimate-Guitar.com Take our survey!
×
intro
------------------------------------------------------
------------------------------------------------------
------------------------------------------5--7--------
-2-2-4-5-4-2----2-4-5-4-2--2-2-4-5-4-2----5--7--------
-0-0-2-3-2-0----0-2-3-2-0--0-0-2-3-2-0----3--5--------
------------------------------------------------------

------------------------------------------------------
------------------------------------------------------
------------------------------------------5--4--------
-2-2-4-5-4-2----2-4-5-4-2--2-2-4-5-4-2----5--4--------
-0-0-2-3-2-0----0-2-3-2-0--0-0-2-3-2-0----3--2--------
------------------------------------------------------

intro (parte de violín)
---------------------------------------------------------10
-10-10-12-13-12-10--10-12-13-12-10--10-10-12-13-12-10--13--
-----------------------------------------------------------
-----------------------------------------------------------
-----------------------------------------------------------
-----------------------------------------------------------

----------12--------------12-----------------12--------12---
-13-13-15----15-13--13-15----15-13--13-13-15----15-13-----15
------------------------------------------------------------
------------------------------------------------------------
------------------------------------------------------------
------------------------------------------------------------

verso

-cuando al atardecer, los últimos rayos de sol
-----------------------------------------------------
-----------------------------------------------------
-----------------------------------------------------
--------7--------------5----7------------------------
--------7--------------5----7------------------------
--------5--------------3----5------------------------

-jugueteaban a esconder
-----------------------------------------------------
-----------------------------------------------------
-----------------------------------------------------
----10-----------------5----7--7---------------------
----10-----------------5----7--7---------------------
----8------------------3----5--5---------------------

-las luces y el color del bosque del perder
-----------------------------------------------------
-----------------------------------------------------
-----------------------------------------------------
----------------------7------------------------------
----------------------7------------------------------
----------------------5------------------------------

-algo se empieza a mover
-algo a los lejos se ve
------------------------------------------------------
------------------------------------------------------
------------------------------------------------------
----3--3----5--5----7--7--7--7------------------------
----3--3----5--5----7--7--7--7------------------------
----1--1----3--3----5--5--5--5------------------------

-------------------------------------------------------
-------------5-----------------------------------------
----------------7--4--5~-------------------------------
----------7~-------------------------------------------
-------------------------------------------------------
-------------------------------------------------------

durante esta verso se toca e intro(guitarra y violín)

-las lluvias se hacían de un rumor
- y el dios de las sombrasse instalaba
- la reina de la noche acudió
-su majestad la luna bien acompañada
-de una procesión de almas en pena

-portadores de luz
-rosas en un ataúd
------------------------------------------------------
------------------------------------------------------
------------------------------------------------------
----3--3----5--5----7--7--7--7------------------------
----3--3----5--5----7--7--7--7------------------------
----1--1----3--3----5--5--5--5------------------------

coro (ooooooooh ooooooh)
X2
-------------------------------------------------------
-------------------------------------------------------
-------------------------------------------------------
----10--------5------7-----------10----9---------------
----10--------5------7-----------10----9---------------
----8---------3------5-----------8-----7---------------

parte de violín del coro
----12--10-------------------12--10----12-13-12--------
------------13-12-13-10--------------------------------
-------------------------------------------------------
-------------------------------------------------------
-------------------------------------------------------
-------------------------------------------------------

----17--15---------------------------------------------
------------18-17-18-15-------------13----12-----------
-------------------------------------------------------
-------------------------------------------------------
-------------------------------------------------------
-------------------------------------------------------

oooooooooooooooooooooooooooohhhhhhhhhhhhhhhhh
----------------------------------------------------
----------------------------------------------------
-----------9--9--9--9--9--9--------9----------------
-----------9--9--9--9--9--9--------9----------------
-----------7--7--7--7--7--7--------7----------------
----------------------------------------------------

parte de violín
X2
----12-12-12-12-10----------10-----------------------
-------------------13-12-13----13-12-13-12-10--------
-----------------------------------------------------
-----------------------------------------------------
-----------------------------------------------------
-----------------------------------------------------

----------12-12-12-12-10----------10------------------
-------------------------13-12-13----13-12-10---------
------------------------------------------------------
------------------------------------------------------
------------------------------------------------------
------------------------------------------------------

----12-12-12-12-10-----------10-----------------------
-------------------13-12-13------13-12-13-12-10-------
------------------------------------------------------
------------------------------------------------------
------------------------------------------------------
------------------------------------------------------

-----------10-12-13-12----12--10------10--------------
----10--13------------------------13-----13--12-----10
------------------------------------------------------
------------------------------------------------------
------------------------------------------------------
------------------------------------------------------

verso 2 (igual y en el mismo orden)

-al frente dicen ver a un vivo con una cruz
-pues necesitan de él
-para llevar la muerte aquien los pueda ver
-no abras a nadie mujer
-no hasta el amanecer

coro 2 (igual que el anterior)

parte de guitarra
-------------------------------------------------------
-------------------------------------------------------
-------------------------------------------------------
----7----7--5--------7----7-7-5----7-7-5---------------
----7----7--5--------7----7-7-5----7-7-5---------------
----5----5--3--------5----5-5-3----5-5-3---------------

parte alegre de violín (3:18)
X5
-------------------------------------------------------
--10---10---10-------10-11-13--8--8--8-----8-10-11-----
----10---10---10--10------------9--9--9--9-------------
-------------------------------------------------------
-------------------------------------------------------
-------------------------------------------------------

-------------------------------------------------------
--10---10---10-------10-11-13----10-13-----------------
----10---10---10--10--------------------12-9-----------
----------------------------------------------10-------
-------------------------------------------------------
-------------------------------------------------------

parte de violín (más rápido)

verso 3 ( igual y en el mismo orden , pero más rápido)

-si los oyes llegar y tu alma quieres salvar
- un oráculo dibuja ya
- reza, métete en él
-y no escuches su voz
-la muerte te hará creer
-que soy yo "Cielo, abreme"

ultimo coro (igual pero más rápido)

Parte de violín (rápido)

outro (a la velocidad normal)
---------------------------------------------------------10
-10-10-12-13-12-10--10-12-13-12-10--10-10-12-13-12-10--13--
-----------------------------------------------------------
-----------------------------------------------------------
-----------------------------------------------------------
-----------------------------------------------------------

-----------12--------------12-----------------12----------
--13-13-15----15-13--13-15----15-13--13-13-15----15-13----
----------------------------------------------------------
----------------------------------------------------------
----------------------------------------------------------
----------------------------------------------------------

el outro con guitarra es igual, pero dos octavas arriba
Suggest correction
Give kudos to tab author, rate the tab!
1 2 3 4 5
comments
print report bad tab
guest
You may want to rate the tab now too:
select rating
Wanna post a correction for this tab? Suggest correction