Oops, an error
Loading. Please wait.

La Santa Compaña Bass

84 views 1 this week
no commentswrite comment
1 2 3 4 5
3 more votes to show rating
add to favorites
×
Save as Personal and add changes to this tab that will be seen only by you. Learn more ›
×
You can save this tab as Personal to edit and correct it or add notes. All changes will be seen only by you. Learn more »
save as personal
new!
launch autoscroll
font size
0
reset
guitar tuner
Autoscroll
slow
fast
+/-
esc
set tempo
stop
Q onda banda? aqi os dejo el bajo de esta maravillosa rola,
q con todo respeto la otra tab no me convencia mucho.
Así q ahi os encargo q intenten sacarla.
¡Ay no olviden calificadme!

-INTRO-
G|-------------------------------------------------|
D|-------------------------------------------------|
A|-------------------3--5--------------------3--5--|
E|-5--5--5--5--5--5--------5--5--5--5--5--5--------|


G|---------------------------------------------|
D|---------------------------------------------|   >X2
A|---------------------------------------3--5--|  /
E|-5-5-7-8-7-5--5-7-8-7-5--5-5-7-8-7-5---------|

VERSO
G|---------------------------------------------------|
D|---------------------------------------------------|
A|---------------------------------------------------|
E|-5-5-5-5-5-5-5-5-5-5-5-5-5-5-5-5-5-5-5-5-5-5-5-5-5-|
_"Cuando al atardecer los últimos rayos del sol."_

G|-------------------|---------------------------------|
D|-------------------|---------------------------------|
A|-------------------|---------------------------------|
E|-5-5-5-5-5-5-5-5-5-|-3-3-3-3-3-3-3-3-3-3-3-3-3-3-3-3-|
_"Jugueteaban a escon|_der"_

G|---------------------|-----------------------------|
D|---------------------|-----------------------------|
A|---------------------|-3-3-3-3-3-3-3-3-3-3-3-3-3-3-|
E|-5-5-5-5-5-5-5-5-5-5-|-----------------------------|
_"Las luces y el color | del bosque del perder."_

G|-------------|-----------|---------------------------|
D|-------------|-----------|---------------------------|
A|-------------|-----------|---------------------------|
E|-1-1-1-1-1-1-|-3-3-3-3-3-|-5-5-5-5-5-5-5-5-5-5-5-5-5-|
-"Algo se empi_|_eza a mov_|_er"-

G|-------------|-----------|---------------------------|
D|-------------|-----------|---------------------------|
A|-------------|-----------|---------------------------|
E|-1-1-1-1-1-1-|-3-3-3-3-3-|-5-5-5-5-5-5-5-5-5-5-5-5-5-|
-"Algo a lo le_|_jos se    | ve

-VERSO 2 (IGUAL QUE EL INTRO)-


G|---------------------------------------------|
D|---------------------------------------------|   >X3
A|---------------------------------------3--5--|  /
E|-5-5-7-8-7-5--5-7-8-7-5--5-5-7-8-7-5---------|
-"La lluvia hacia..."-
-"La reina de la noche...-"
-"De una pocesion...-"

G|-------------|-----------|---------------------------|
D|-------------|-----------|---------------------------|
A|-------------|-----------|---------------------------|
E|-1-1-1-1-1-1-|-3-3-3-3-3-|-5-5-5-5-5-5-5-5-5-5-5-5-5-|
   -"Portadores            | de luz"-

G|-------------|-----------|---------------------------|
D|-------------|-----------|---------------------------|
A|-------------|-----------|---------------------------|
E|-1-1-1-1-1-1-|-3-3-3-3-3-|-5-5-5-5-5-5-5-5-5-5-5-5-5-|
-"Rosas en     |un     ata_|_úd"-

-CORO-
G|--------------------------------------------------------------------|
D|--------------------------------------------------------------------|
A|-3-3-3-3-3-3-3-3-------------------------------3-3-3-3-3-3-2-2-2-2-2|
E|-----------------3-3-3-3-3-3-3-3-5-5-5-5-5-5-5----------------------| X2
-"Oooooooooooooooooooooooooooooooooooooooooooooooohhhhhhhhh"-

-ESTA ES LA PARTE DEL ÚLTIMO GRITO-
G|---------------------------------|
D|-2-2-2-2-2-2-2-2-2-2-2-2-2-2-2-2-|
A|---------------------------------|
E|---------------------------------|
-"Aaaaaaaaaaaaaaaahhhhhhhhhh"-


G|--------------------------------------------------------------------|
D|--------------------------------------------------------------------|
A|-3-3-3-3-3-3-3-3-------------------------------3-3-3-3-3-3-2-2-2-2-2|
E|-----------------3-3-3-3-3-3-3-3-5-5-5-5-5-5-5----------------------| X2


 VERSO 3(IGUAL QUE EL VERSO 1)

-"Al frente dicen ver
 a un vivo con una cruz,
 pues necesitan de él,
 Para llevar la muerte
 a quien les pueda ver."_

-"No habras a nadie mujer,
 no hasta el amanecer."_

-CORO-


G|--------------------------------------------------------------------|
D|--------------------------------------------------------------------|
A|-3-3-3-3-3-3-3-3-------------------------------3-3-3-3-3-3-2-2-2-2-2|
E|-----------------3-3-3-3-3-3-3-3-5-5-5-5-5-5-5---------------------| X2


-RIFF ESPECIAL-(AL RÍTMO DE LA FLAUTA)
G|-------------------------------------------------------------------------
D|-------------------------------------------------------------------------
A|3---3---3---3---2-3-4-5-1---1---1---1---0-1-2-3-3---3---3---3---2-3-4-5-1
E|--3---3---3---3-----------1---1---1---1-----------3---3---3---3----------
   x5

(RÁPIDO)
G|----------------------------------------------------------------------|
D|----------------------------------------------------------------------|
A|-33333333333333333--------------------------------3333333333-222222222|
E|-------------------333333333333333-5555555555555----------------------|X2

(RÁPIDO)
G|---------------------------------------------|
D|---------------------------------------------|   >X2
A|---------------------------------------3--5--|  /
E|-5-5-7-8-7-5--5-7-8-7-5--5-5-7-8-7-5---------|

VERSO 4(IGUAL QUE EL V.1)(RÁPIDO)
_"Si los oyes llegar
 y tu alma quieres salvar
 un oráculo dibuja ya,
 reza metete en él
 y no escuches su voz
 la muerte te hará creer:
 "que soy yo cielo ábreme""_

-CORO-


(RÁPIDO)
G|----------------------------------------------------------------|
D|----------------------------------------------------------------|
A|-33333333333333-----------------------------3333333333-222222222|
E|----------------33333333333333-5555555555555--------------------|X2

(LENTO)
G|---------------------------------------------|
D|---------------------------------------------|   >X2
A|---------------------------------------3--5--|  /
E|-5-5-7-8-7-5--5-7-8-7-5--5-5-7-8-7-5---------|


Pues ahi esta carnales, si teneis alguna duda, comentario,
sugerancia, o alguna cosa de esas, mandar un mail a
"belfas_21@hot.."
Un saludo a mis carnales de la banda "Dama feudal"
q son: Meny, Abraham, Luis y Joryi, q aunq me hagan encabronar
yo se q pronto llegarémos muy alto.
Suggest correction
Give kudos to tab author, rate the tab!
1 2 3 4 5
comments
print report bad tab
guest
Wanna post a correction for this tab? Suggest correction