Oops, an error
Loading. Please wait.

La Santa Compaña Tab

version 5
version 5

Whole song

49 views 1 this week
no commentswrite comment
1 2 3 4 5
3 more votes to show rating
add to favorites
launch autoscroll
font size
0
reset
how to read this tab
guitar tuner
Autoscroll
slow
fast
+/-
esc
set tempo
stop
Help us to improve Ultimate-Guitar.com Take our survey!
×
espero ke le guste esta rolita de los mago, 
esta cancion etsa vien heavy ase como me gustan las rolas


Guitar


E||-----------------------------|--------------------------|
B||-----------------------------|--------------------------|
G||-----------------------------|----------------5----7----|
D||-----------------------------|----------------5----7----|
A||--0--0-2-3-2-0----0-2-3-2-0--|--0--0-2-3-2-0--3----5----|
E||-----------------------------|--------------------------|


-----------------------------|--------------------------|
-----------------------------|--------------------------|
-----------------------------|----------------5---------|
-----------------------------|----------------5----5----|
--0--0-2-3-2-0----0-2-3-2-0--|--0--0-2-3-2-0--3----5----|
-----------------------------|---------------------3----|


-----------------------------|--------------------------|
-----------------------------|--------------------------|
-----------------------------|----------------5----7----|
-----------------------------|----------------5----7----|
--0--0-2-3-2-0----0-2-3-2-0--|--0--0-2-3-2-0--3----5----|
-----------------------------|--------------------------|


-----------------------------|--------------------------|-------------------|
-----------------------------|--------------------------|-------------------|
-----------------------------|----------------5---------|--2----------------|
-----------------------------|----------------5----5----|--2----------------|
--0--0-2-3-2-0----0-2-3-2-0--|--0--0-2-3-2-0--3----5----|--0----------------|
-----------------------------|---------------------3----|-------------------|


-------------------|-------------------|--------------------|
-------------------|-------------------|--------------------|
-------------------|--2----------------|--5-----------------|
----------------5--|--2----------------|--5--------------5--|
----------------5--|--0----------------|--3--------------5--|
----------------3--|-------------------|-----------------3--|


--------------------|-------------------|------------------------------|
--------------------|-------------------|------------------------------|
--2--2--------------|--2----------------|------------------------------|
--2--2--------------|--2----------------|--3------3------5------5------|
--0--0--------------|--0----------------|--3------3------5------5------|
--------------------|-------------------|--1--1-1-1--1-1-3--3-3-3--3-3-|


------------------------------|------------------------------|
------------------------------|------------------------------|
------------------------------|------------------------------|
--7------7------7------7------|--3------3------5------5------|
--7------7------7------7------|--3------3------5------5------|
--5--5-5-5--5-5-5--5-5-5--5-5-|--1--1-1-1--1-1-3--3-3-3--3-3-|


------------------------------|------------------------|
------------------------------|------------------------|
------------------------------|-------9----7-----------|
--7------7------7------7------|--7------------9--10----|
--7------7------7------7------|------------------------|
--5--5-5-5--5-5-5--5-5-5--5-5-|------------------------|


-----------------------------|--------------------------|
-----------------------------|--------------------------|
-----------------------------|----------------5----7----|
-----------------------------|----------------5----7----|
--0--0-2-3-2-0----0-2-3-2-0--|--0--0-2-3-2-0--3----5----|
-----------------------------|--------------------------|


-----------------------------|--------------------------|
-----------------------------|--------------------------|
-----------------------------|----------------5---------|
-----------------------------|----------------5----5----|
--0--0-2-3-2-0----0-2-3-2-0--|--0--0-2-3-2-0--3----5----|
-----------------------------|---------------------3----|


-----------------------------|--------------------------|
-----------------------------|--------------------------|
-----------------------------|----------------5----7----|
-----------------------------|----------------5----7----|
--0--0-2-3-2-0----0-2-3-2-0--|--0--0-2-3-2-0--3----5----|
-----------------------------|--------------------------|


------------------------------|------------------------------|
------------------------------|------------------------------|
------------------------------|------------------------------|
--3------3------5------5------|--7------7------7------7------|
--3------3------5------5------|--7------7------7------7------|
--1--1-1-1--1-1-3--3-3-3--3-3-|--5--5-5-5--5-5-5--5-5-5--5-5-|


------------------------------|------------------------------|
------------------------------|------------------------------|
------------------------------|------------------------------|
--3------3------5------5------|--7------7------7------7------|
--3------3------5------5------|--7------7------7------7------|
--1--1-1-1--1-1-3--3-3-3--3-3-|--5--5-5-5--5-5-5--5-5-5--5-5-|


-------------------|-------------------|-------------------|
-------------------|-------------------|-------------------|
--5----------------|-------------------|--2----------------|
--5----------------|--5----------------|--2----------------|
--3----------------|--5----------------|--0----------------|
-------------------|--3----------------|-------------------|


------------------------------|------------------------------|
------------------------------|------------------------------|
--5------5--------------------|--5------5------5------5------|
--5------5------5------5------|--5------5------5------5------|
--3--3-3-3--3-3-5------5------|--3--3-3-3--3-3-3--3-3-3--3-3-|
----------------3--3-3-3--3-3-|------------------------------|


------------------------------|------------------------------|
------------------------------|------------------------------|
------------------------------|--2------2------2------2------|
--5------5------5------5------|--2------2------2------2------|
--5------5------5------5------|--0--0-0-0--0-0-0--0-0-0--0-0-|
--3--3-3-3--3-3-3--3-3-3--3-3-|------------------------------|


------------------------------|------------------------------|
------------------------------|------------------------------|
--5------5--------------------|--9------9------9------9------|
--5------5------5------5------|--9------9------9------9------|
--3--3-3-3--3-3-5------5------|--7--7-7-7--7-7-7--7-7-7--7-7-|
----------------3--3-3-3--3-3-|------------------------------|


-------------------------||-------------------------------|
-------------------------||-------------------------------|
--9------9------9--------||*--2------2------2------2------|
--9------9------9--------||*--2------2------2------2------|
--7--7-7-7--7-7-7--------||---0--0-0-0--0-0-0--0-0-0--0-0-|
-------------------------||-------------------------------|


------------------------------|------------------------------|
------------------------------|------------------------------|
--5------5------5------5------|------------------------------|
--5------5------5------5------|--5------5------5------5------|
--3--3-3-3--3-3-3--3-3-3--3-3-|--5------5------5------5------|
------------------------------|--3--3-3-3--3-3-3--3-3-3--3-3-|


----------------------||-------------------|-------------------|
----------------------||-------------------|-------------------|
--2--------5---------*||--2----------------|-------------------|
--2--------5----5----*||--2----------------|-------------------|
--0--------3----5-----||--0----------------|-------------------|
----------------3-----||-------------------|----------------3--|


-------------------|--------------------|--------------------|
-------------------|--------------------|--------------------|
--2----------------|--5-----------------|--2--2--------------|
--2----------------|--5-----------------|--2--2--------------|
--0----------------|--3-----------------|--0--0--------------|
-------------------|-----------------3--|--------------------|


------------------------------|------------------------------|
------------------------------|------------------------------|
------------------------------|------------------------------|
--3------3------5------5------|--7------7------7------7------|
--3------3------5------5------|--7------7------7------7------|
--1--1-1-1--1-1-3--3-3-3--3-3-|--5--5-5-5--5-5-5--5-5-5--5-5-|


------------------------------|------------------------------|
------------------------------|------------------------------|
------------------------------|------------------------------|
--3------3------5------5------|--7------7------7------7------|
--3------3------5------5------|--7------7------7------7------|
--1--1-1-1--1-1-3--3-3-3--3-3-|--5--5-5-5--5-5-5--5-5-5--5-5-|


-------------------|-------------------|-------------------|
-------------------|-------------------|-------------------|
--5----------------|-------------------|--2----------------|
--5----------------|--5----------------|--2----------------|
--3----------------|--5----------------|--0----------------|
-------------------|--3----------------|-------------------|


------------------------------|------------------------------|
------------------------------|------------------------------|
--5------5--------------------|--5------5------5------5------|
--5------5------5------5------|--5------5------5------5------|
--3--3-3-3--3-3-5------5------|--3--3-3-3--3-3-3--3-3-3--3-3-|
----------------3--3-3-3--3-3-|------------------------------|


------------------------------|------------------------------|
------------------------------|------------------------------|
------------------------------|--2------2------2------2------|
--5------5------5------5------|--2------2------2------2------|
--5------5------5------5------|--0--0-0-0--0-0-0--0-0-0--0-0-|
--3--3-3-3--3-3-3--3-3-3--3-3-|------------------------------|


------------------------------|------------------------------|
------------------------------|------------------------------|
--5------5--------------------|--9------9------9------9------|
--5------5------5------5------|--9------9------9------9------|
--3--3-3-3--3-3-5------5------|--7--7-7-7--7-7-7--7-7-7--7-7-|
----------------3--3-3-3--3-3-|------------------------------|


-------------------------||-------------------------------|
-------------------------||-------------------------------|
--9------9------9--------||*--2------2------2------2------|
--9------9------9--------||*--2------2------2------2------|
--7--7-7-7--7-7-7--------||---0--0-0-0--0-0-0--0-0-0--0-0-|
-------------------------||-------------------------------|


------------------------------|------------------------------|
------------------------------|------------------------------|
--5------5------5------5------|------------------------------|
--5------5------5------5------|--5------5------5------5------|
--3--3-3-3--3-3-3--3-3-3--3-3-|--5------5------5------5------|
------------------------------|--3--3-3-3--3-3-3--3-3-3--3-3-|


----------------------||--------------------|--------------------|
----------------------||--------------------|--------------------|
--2--------5---------*||--2--------------2--|---------------2----|
--2--------5----5----*||--2--------------2--|--5------------2----|
--0--------3----5-----||--0--------------0--|--5------------0----|
----------------3-----||--------------------|--3-----------------|


------------------------|------------------|------------------|
------------------------|------------------|------------------|
------------------------|------------------|------------------|
--------5-5-5-----5-5-5-|------------------|------------------|
--------5-5-5-----5-5-5-|------------------|------------------|
--------3-3-3-----3-3-3-|------------------|------------------|


------------------|------------------|------------------|------------------|
------------------|------------------|------------------|------------------|
------------------|------------------|------------------|------------------|
------------------|------------------|------------------|------------------|
------------------|------------------|------------------|------------------|
------------------|------------------|------------------|------------------|


|----------------------------------|---------------------------------|
|----------------------------------|---------------------------------|
|*--2------------------------------|--5------------------------------|
|*--2------------------------------|--5------------------------------|
|---0--0-0-0-0-0-0-0-0-0-0-0-0-0-0-|--3--3-3-3-3-3-3-3-3-3-3-3-3-3-3-|
|----------------------------------|---------------------------------|


---------------------------------|----------------------||
---------------------------------|----------------------||
---------------------------------|--2--------5---------*||
--5------------------------------|--2--------5----5----*||
--5------------------------------|--0--------3----5-----||
--3--3-3-3-3-3-3-3-3-3-3-3-3-3-3-|----------------3-----||


-----------------------------|--------------------------|
-----------------------------|--------------------------|
-----------------------------|----------------5----7----|
-----------------------------|----------------5----7----|
--0--0-2-3-2-0----0-2-3-2-0--|--0--0-2-3-2-0--3----5----|
-----------------------------|--------------------------|


-----------------------------|--------------------------|
-----------------------------|--------------------------|
-----------------------------|----------------5---------|
-----------------------------|----------------5----5----|
--0--0-2-3-2-0----0-2-3-2-0--|--0--0-2-3-2-0--3----5----|
-----------------------------|---------------------3----|


-----------------------------|--------------------------|
-----------------------------|--------------------------|
-----------------------------|----------------5----7----|
-----------------------------|----------------5----7----|
--0--0-2-3-2-0----0-2-3-2-0--|--0--0-2-3-2-0--3----5----|
-----------------------------|--------------------------|


-----------------------------|--------------------------|-------------------|
-----------------------------|--------------------------|-------------------|
-----------------------------|----------------5---------|--2----------------|
-----------------------------|----------------5----5----|--2----------------|
--0--0-2-3-2-0----0-2-3-2-0--|--0--0-2-3-2-0--3----5----|--0----------------|
-----------------------------|---------------------3----|-------------------|


-------------------|-------------------|--------------------|
-------------------|-------------------|--------------------|
-------------------|--2----------------|--5-----------------|
----------------5--|--2----------------|--5--------------5--|
----------------5--|--0----------------|--3--------------5--|
----------------3--|-------------------|-----------------3--|


--------------------|-------------------|--------------------------------|
--------------------|-------------------|--------------------------------|
--2--2--------------|--2----------------|--------------------------------|
--2--2--------------|--2----------------|--3--------------5--------------|
--0--0--------------|--0----------------|--3--------------5--------------|
--------------------|-------------------|--1--1-1-1-1-1-1-3--3-3-3-3-3-3-|


---------------------------------|--------------------------------|
---------------------------------|--------------------------------|
---------------------------------|--------------------------------|
--7------------------------------|--3--------------5--------------|
--7------------------------------|--3--------------5--------------|
--5--5-5-5-5-5-5-5-5-5-5-5-5-5-5-|--1--1-1-1-1-1-1-3--3-3-3-3-3-3-|


---------------------------------|-------------------|-------------------|
---------------------------------|-------------------|-------------------|
---------------------------------|--5----------------|-------------------|
--7------------------------------|--5----------------|--5----------------|
--7------------------------------|--3----------------|--5----------------|
--5--5-5-5-5-5-5-5-5-5-5-5-5-5-5-|-------------------|--3----------------|


-------------------|--------------------------------|
-------------------|--------------------------------|
--2----------------|--5-----------------------------|
--2----------------|--5--------------5--------------|
--0----------------|--3--3-3-3-3-3-3-5--------------|
-------------------|-----------------3--3-3-3-3-3-3-|


---------------------------------|---------------------------------|
---------------------------------|---------------------------------|
--5------------------------------|---------------------------------|
--5------------------------------|--5------------------------------|
--3--3-3-3-3-3-3-3-3-3-3-3-3-3-3-|--5------------------------------|
---------------------------------|--3--3-3-3-3-3-3-3-3-3-3-3-3-3-3-|


---------------------------------|--------------------------------|
---------------------------------|--------------------------------|
--2------------------------------|--5-----------------------------|
--2------------------------------|--5--------------5--------------|
--0--0-0-0-0-0-0-0-0-0-0-0-0-0-0-|--3--3-3-3-3-3-3-5--------------|
---------------------------------|-----------------3--3-3-3-3-3-3-|


|----------------------------------|---------------------------------|
|----------------------------------|---------------------------------|
|*--2------------------------------|--5------------------------------|
|*--2------------------------------|--5------------------------------|
|---0--0-0-0-0-0-0-0-0-0-0-0-0-0-0-|--3--3-3-3-3-3-3-3-3-3-3-3-3-3-3-|
|----------------------------------|---------------------------------|


---------------------------------|----------------------||
---------------------------------|----------------------||
---------------------------------|--2--------5---------*||
--5------------------------------|--2--------5----5----*||
--5------------------------------|--0--------3----5-----||
--3--3-3-3-3-3-3-3-3-3-3-3-3-3-3-|----------------3-----||


-----------------------------|--------------------------|
-----------------------------|--------------------------|
-----------------------------|----------------5----7----|
-----------------------------|----------------5----7----|
--0--0-2-3-2-0----0-2-3-2-0--|--0--0-2-3-2-0--3----5----|
-----------------------------|--------------------------|


-----------------------------||
-----------------------------||
-----------------------------||
-----------------------------||
--0--0-2-3-2-0----0-2-3-2-0--||
-----------------------------||
Suggest correction
Give kudos to tab author, rate the tab!
1 2 3 4 5
comments
print report bad tab
guest
You may want to rate the tab now too:
select rating
Wanna post a correction for this tab? Suggest correction