Oops, an error
Loading. Please wait.

Lo Que El Viento Se Dejó Tab

version 1
version 1

Whole song

Interactive

67 views 1 this week
no commentswrite comment
1 2 3 4 5
3 more votes to show rating
add to favorites
launch autoscroll
font size
0
reset
how to read this tab
guitar tuner
Autoscroll
slow
fast
+/-
esc
set tempo
stop
Help us to improve Ultimate-Guitar.com Take our survey!
×
Aquí va, la que considero la versión correcta del tema. Para
mí suena un 99% bien, incluye el solo, los arreglos y eso.
Suerte!

Acordes
A:   x02220
C#7: x46464
F#m: 244222
D  : x57775 o xx0232
Dm : x57765 o xx0231


Intro:

  A                C#7               F#m              D
|----------------------------------|----------------------------------|
|---2----2--2------------6---------|---2----2--2------------7---------|
|---2----2--2----------4-----4-----|---2----2--2----------7-----7-----|
|---------------------6--------6---|---------------------7--------7---|
|-0-----0----------4---------------|------------------5---------------|
|----------------------------------|-2-----2--------------------------|


 A                C#7         F#m(fill 1)  D
Ayer hablé con un tipo muy formal
A          C#7                   F#m(fill 2)  D
padre de familia y un marido ejemplar
   A              C#7                  F#m(fill 3)  D
su nombre es prometer y su apellido mentir
   A          C#7                   F#m       D
él dicta las normas y como has de vivir.
A        C#7                  F#m        D
Déjeme decirle con mucha educación
       A               C#7                    F#m       D
que mi patria es mi guitarra y mi nación sólo yo
A              C#7            F#m          D
hoy quiero enseñarle mi mundo y preste atención
  A            C#7                   F#m       D
a todo lo que vea y guarde bien su honor.


      A            C#7                        D
Conocerá usted a María, en la esquina noche y día
       A            C#7                       D
fué violada por su padre, la del suelo es su madre
    A               C#7
ese cometió un gran fallo,
         D               Dm
tiene el mono y no hay caballo
       A              C#7
y el niño que está llorando,
               D          Dm
con seis años mendigando.

A C#7 F#m D x4

   A                    C#7                 F#m             D
La única bandera que me pone de pie son las bragas de una mujer
   A                  C#7             F#m                D
El único himno que me hace estremecer son dos birras

               A  C#7               D       Dm
y esperar amanecer...y esperar amanecer

     A              C#7                        D
El borracho de la esquina es licenciado en medicina
      A             C#7                      D
A ese viejo que empujaste la presión tu le robaste
      A              C#7
Si durmiera entre cartones
      D         Dm
entre putas y ladrones
     A                    C#7
Si pasara usted hambre y frío
                  D      Dm
Entendería lo que digo

  A                      C#7                     F#m
|----------------------------------------------|----------------
|----------------------------------------------|----------------
|----------------------------------------------|----------------
|-9/11-9/11-9h11p9-------9b--.--9-9-----9b---9-|-7-----------7--
|------------------12-9.-----------------------|----9----7h9----
|----------------------------------------------|----------------

  D                    A                     C#7
 --------------------|------------------------------------------
 --------------------|------------------------------------------
 --------------------|-9p6--------------------------------------
 -9b--r--7h9--7------|-----9-7---7-9p6--------------------7---7-
 --------------------|---------9-------8--------8---9-8h9---9---
 --------------------|-------------------9--------9-------------

          F#m                  D
 -------|-------------------------------------------------------|
 -------|----------------------------------------14--14------10-|
 -------|----------9----9-11b-9h11--9--------/14----------------|
 -9p7-9-|-9/11--11---11-----------------------------------------|
 -------|-------------------------------------------------------|
 -------|-------------------------------------------------------|

  A                               C#7
|---------------------------------------------------------------
|------10------10------10------10------11------11------11-------
|-9h11----9h11----9h11----9h11----9h11----9h11----9h11----9h11--
|---------------------------------------------------------------
|---------------------------------------------------------------
|---------------------------------------------------------------

       F#m                  D           *soltar de A poco el bend aquí
 ----|----------------------------------v----------|
 -11-|-12b--12b--12b--12b---12b-12b-12b-r~--\\\10--|
 ----|---------------------------------------------|
 ----|---------------------------------------------|
 ----|---------------------------------------------|
 ----|---------------------------------------------|

   A                       C#7
|---------------------------------------------------------|
|---------------------------------------------------------|
|---9---9---9---9---9--------10---10---10---10---10---10--|
|-11--11--11--11--11--11\--11---11---11---11---11---11----|
|---------------------------------------------------------|
|---------------------------------------------------------|

   F#m                       D
|---------------------------------------------------------|
|---------------------------------------------------------|
|---11---11---11---11---11/----11---11---11---14---14\----|
|-11---11---11---11---11-----12---12---12---12---12-------|
|---------------------------------------------------------|
|---------------------------------------------------------|


A          C#7                 F#m           D
Dejeme escupirle pero con educación
         A                 C#7                    F#m     D
Y cuando llegue a la Monde clover haga una comparación
A              C#7                  F#m         D
Todo lo que ha visto, esa es mi religión
    A              C#7                      F#m       D
Por cierto, un donativo...la cartera y su reloj!
Venga!

          A           C#7                   D
Lo que el viento se dejó fueron tipos como tu
       A         C#7                      D
Ni con todo tu poder nos podrás quitar la noche
       A         C#7
Ni con todo tu dinero
       D            Dm
nos podrás robar la calle
       A            C#7
Ni con toda tu ambición nos
                  D       Dm
podrás dejar sin sueños

                     A
Tienes el himno nacional
C#7                   F#m      D
Nosotros el rock and roll!

[A C#7 F#m D] hasta el final...

Lo que el viento se dejo...
Conociste a Maria y a un borracho de la esquina..
Si durmiera entre cartones, entre putas y ladrones...


                             -    o    -

  Fill 1
|--------------------------------------|
|--------------------------------------|
|-----2-----2-----2-----2-/5\4-2h4--2--|
|-2h4---2h4---2h4---2h4----------------|
|--------------------------------------|
|--------------------------------------|

  Fill 2
|------12----12----12------------------|
|--/14---/14---/14---/14p12------------|
|---------------------------14-p11--14-|
|--------------------------------------|
|--------------------------------------|
|--------------------------------------|

  Fill 3
|-9--8-7--5-/7-5---7b--5h7--5----------|
|--------------------------------------|
|--------------------------------------|
|--------------------------------------|
|--------------------------------------|
|--------------------------------------|
Suggest correction
Give kudos to tab author, rate the tab!
1 2 3 4 5
comments
print report bad tab
guest
You may want to rate the tab now too:
select rating
Wanna post a correction for this tab? Suggest correction