Oops, an error
Loading. Please wait.

Lo Que El Viento Se Dejó Bass

version 1
version 1

Whole song

Interactive

32 views 1 this week
no commentswrite comment
1 2 3 4 5
3 more votes to show rating
add to favorites
launch autoscroll
font size
0
reset
guitar tuner
×
Best way to learn
"Lo Que El Viento Se Dejó"
Autoscroll
slow
fast
+/-
esc
set tempo
stop
No encontré en ningún lugar del internet una tablatura de esta canción,
así que hice mi versión y la compartiré con el mundo. No es 100% deta-
llada pero se aproxima mucho a la original. Disfruten

Afinación normal: E-A-D-G

Básicamente ésto se toca durante toda la canción, pues sirve de acompa-
ñamiento a los acordes de la guitarra.

Dicho acompañamiento va así:

Intro y Verso
      A          C#7     F#m           D
G--------------------------------------------|
D--------------------------------------------|
A-----------------444444---------------555555|
E----5-5----5-5-5--------2-2----2-2-2--------|

En el precoro...

"Conocerá usted a María en la esquina noche y día..."
        A          C#7                        D
G------------------------------------------------| \
D------------------------------------------------| |- - (4)
A-----------------4-4-4-4-4-4------------5-5-5-5-| |- - veces
E------5-5-5-5-----------------------------------| /


Opcionalmente, hay un pequeño riff que me gusta tocar al final de
cada verso, que va así:

G------------------------------------------------------------|
D------------------------------------------------------------|
A-----------------444444---------------5-5-5-4-4-2-2-2-0-0---|
E----5-5----5-5-5--------2-2----2-2-2------------------------|

Eso es todo.


-------------
Quejas, dudas, reclamaciones, sugerencias, etc...


Espero y les sea útil.
Suggest correction
Give kudos to tab author, rate the tab!
1 2 3 4 5
comments
print report bad tab
guest
You may want to rate the tab now too:
select rating
Wanna post a correction for this tab? Suggest correction