Oops, an error
Loading. Please wait.

Man On The Silver Mountain Tab

109 views 1 this week
no commentswrite comment
1 2 3 4 5
3 more votes to show rating
add to favorites
launch autoscroll
font size
0
reset
how to read this tab
guitar tuner
Autoscroll
slow
fast
+/-
esc
set tempo
stop
Intro                                                (4x)
E|------------------------------------------------------|
B|------------------------------------------------------|
G|----------3-------------/5--3----------3--------------|
D|--5-5-3-5-3--3-5--5-3-5-/5--3--5-5-3-5-3--3-5--5-3----|
A|--5-5-3-5----3-5--5-3-5--------5-5-3-5----3-5--5-3-6--|
E|---------------------------------------------------6--|

Riff 1 (0:27)
E|----------------------------------------------------------------------------
B|----------------------------------------------------------------------------
G|----------------------------------------------------------------------------
D|------3------10-----5------5--------13------10------3------3------5------3--
A|----------------------------------------------------------------------------
E|--1-1----8-8----3-3----3-3----11-11-----8-8-----1-1----1-1----3-3----1-1----
P.M ...    ...    ...    ...    .....     ...     ...    ...    ...    ...
----------------------------------------------------|
----------------------------------------------------|
----------------------------------------------------|
--------10------10--------13------10------5------5--|
----------------------------------------------------|
----8-8-----8-8-----11-11-----8-8-----3-3----3-3----|
    ...     ...     .....     ...     ...    ...

Riff 2 (0:41)
E|-----------------------------------------------------------------------|
B|-----------------------------------------------------------------------|
G|--7---------7----------------------------------------------------------|
D|--7----8----7----7-----------------------------------------------------|
A|--5----8----5----7----1-1-1-1-1-1-1-1-3-3-3-3-3-3-3-3-1-1-1-1-1-1-1-1--|
E|-------6---------5-----------------------------------------------------|
P.M                     ...............................................
-----------------------------------------------------|
-----------------------------------------------------|
-----------------------------------------------------|
-------------------1-1-1-1-1-1-1-1-------------------|
-----------------------------------------------------|
---3-3-3-3-3-3-3-3-----------------1-1-1-1-1-1-1-1---|
   ...............................................

- Intro (2x)

- Riff 1

- Riff 2

- Intro (2x)

Riff 3  (1:47)
E|-----------------------------------------------------------|
B|-----------------------------------------------------------|
G|-----------------------------------------------------------|
D|-----------------------------------------3-----------------|
A|-----------------------------------------3-----------------|
E|--6-8-(8)b9b8-6-5~\--1-1--1-1--1-1--1-1--1--1-1--1-1--1-1--|
P.M                    ...  ...  ...  ...     ...  ...  ...

Solo (1:52)
E|-----------------------------------------------------------------------------------
B|-----------------------------------------------------------------------------------
G|---5b7--------5b7-5b7-5b7-5b7b5p3---3-~-3-2~---7h8p7h8p7h8p7h8p7h8p7h8p7h8p7h8--
D|----------------------------------5------------------------------------------------
A|-----------------------------------------------------------------------------------
E|-----------------------------------------------------------------------------------

-------------------------------------------------------------------------------------
-------------------------------15-13-15-11-15----15----15-------------15-13-15-11-15-
---10~--12~--/14--15--14-14~------------------14----12----11-12-12~------------------
-------------------------------------------------------------------------------------
-------------------------------------------------------------------------------------
-------------------------------------------------------------------------------------

---------------------------18b20b18p15h17~--15h17p15----15-17-15----15--------------
------15----15---------------------------------------18----------18-----18-15----15-
---14----12----11-12-12~------------------------------------------------------17----
------------------------------------------------------------------------------------
------------------------------------------------------------------------------------
------------------------------------------------------------------------------------

------------18b20-18-18~----------------------------------------------------------
---18b20~------------------------11-13-11~------------------------10-11-13-11-10--
---------------------------10h12-10-12-10~-12\------------8-10-12-----------------
---------------------------10h12-----------12\----8-10-12-------------------------
----------------------------------------------------------------------------------
----------------------------------------------------------------------------------

-----------------------------------------10\---------------------------------------
------11-10----10---------------10-11-13----------------15----------------15-------
---12-------12----12-10-8-10-12----------------15-17-18----18-17-15-17-18----18-17-
-----------------------------------------------------------------------------------
-----------------------------------------------------------------------------------
-----------------------------------------------------------------------------------
                                                                          *
---------------------15-18-17-15----15-----------------------------------------|
------------15-17-18-------------18----18b20~----------------------------------|
---15-17-18------------------------------------17--15-17b19b17p15-----15--17---|
-------------------------------------------------------------------17----------|
-------------------------------------------------------------------------------|
-------------------------------------------------------------------------------|
* - Usar palanca

Riff 4 
Suggest correction
Give kudos to tab author, rate the tab!
1 2 3 4 5
comments
print report bad tab
guest
Wanna post a correction for this tab? Suggest correction