Oops, an error
Loading. Please wait.

Mañana Empieza Hoy Tab

43 views 1 this week
no commentswrite comment
1 2 3 4 5
3 more votes to show rating
add to favorites
launch autoscroll
font size
0
reset
how to read this tab
guitar tuner
Autoscroll
slow
fast
+/-
esc
set tempo
stop
Help us to improve Ultimate-Guitar.com Take our survey!
×
Hola a toda la raza que esta viendo esta tab. Pero
el fin quiero enviar saludos a toda la gente que a tenido
un amor y que se rinde porque la canción
dice que el futuro tu lo creas ;
este es el solo de la canción la canción no la puse
por no verlo necesario esta muy sencilla si acaso
lo mas difícil es el estribillo
o los violines ahí les van las pisadas
D|-----------      -------
A|------3----      --5----
E|------1----      --3----
       F5           G5
Esas  notas van solo con los versos no
Se si los lleva el estribillo
(me dio hueva poner todo)


Nota: cuándo veas números(3:14) por ejemplo
Eso vale las notas que están abajo
no las de arriba
                                                $***********************$
                                                $::::::Simbología:::::::$
      *=No debes dejar de sostener              $~~~~~~~~~===~~~~~~~~~~~$
        el bend                                 §°V=Usar palanca       °§
                                                §°H=Hammer on  /=slide °§
                                                §°P=Pull off   B=Bend  °§
                                                §°~=Vibrato            °§
                                                §°<>=Artificial armonic°§
                                                §°~~~~~~~~===~~~~~~~~~~°§
                                                $***********************$
     :::::::::::::::::::::::::::::::::::::::::::::::::::::::::::::::::
     :*~§<<<<<<<<§<<<°<<<<<<<°Solo completo°>>>>>>°>>§>>>>>>>>>>>>§~*:
     :::::::::::::::::::::::::::::::::::::::::::::::::::::::::::::::::
    (3:13)                                                      (3:20)
e|-------------------------------|------------------------------------
B|-------------------------------|------------------------------------
G|-9h10-9-----10~-9h10p9---------|---------9-10~-12-10~-9----9-<12>~--
D|---------12------------12-9-10~|-9-10-12----------------12----------
                                                      (3:27)
e|-------------------------------------------------------------------
B|-------------------------------------------------------------------
G|-10p9-10/9-9/7-7/9-9/10-10/9-9/7-7/9-9h10~-9h10-9-7-(10p9)=V~------
D|-------------------------------------------------------------------
  (3:28)
e|------------------------------------------------------------
B|--18~-17-15-13-15------13-15-17-15-13-----------------------
G|--------------------------------------15-14-15-17-15-14-15--
D|------------------------------------------------------------
  (3:34)                                               (3:41)
e|-------------|-------------------------------|-------------------
B|----18----18-|------------18-20--22b-22-22-22|-20-18----20~------
G|-17----17----|-17~-17--19--------------------|-------19----------
D|-------------|-------------------------------|-------------------
  Muchas veces                       *
Mucha suerte con el tema les mando un gran saludo a:
?Charles? , ¡?gera?! , ?el hunch?,gera=arrodillate ante 
Suggest correction
Give kudos to tab author, rate the tab!
1 2 3 4 5
comments
print report bad tab
guest
You may want to rate the tab now too:
select rating
Wanna post a correction for this tab? Suggest correction