Oops, an error
Loading. Please wait.

Más Que Una Intención Tab

version 1
version 1

Whole song

Interactive

53 views 1 this week
no commentswrite comment
1 2 3 4 5
3 more votes to show rating
add to favorites
launch autoscroll
font size
0
reset
how to read this tab
guitar tuner
×
Best way to learn
"Más Que Una Intención"
Autoscroll
slow
fast
+/-
esc
set tempo
stop
x5
e|------------------------------------------------------|
B|------------------------------------------------------|
G|-----11-13-14-13-11-----------11-13-11----11----------|
D|--12----------------14--12-14----------14-------------|
A|------------------------------------------------------|
E|------------------------------------------------------|

e|------------------------------------------------------|
B|------------------------------------------------------|
G|--------11-13-11------14-13-11--16-14-13--------11~---|
D|--12-14----------14-----------------------------------|
A|------------------------------------------------------|
E|------------------------------------------------------|


F#F#-C#C#-DD-EE-FF


ahora te veo ahi
y me das miedo una vez mas.
siento que tu me miras
 a veces dudo si no me ves.
no importa, ahora da igual.
estoy pensando en mi


que puedo hacer por ti.
intenta pasarlo bien
B                  A
--no voy a construir
          G          DD-AA
un himno con mi voz, no...
B              A       G
--ya lo intente una y otra vez
y me perdi.


esto x2
con estos akordes x atras:F#-C#-D-E-F

e|------------------------------------------------------|
B|------------------------------------------------------|
G|-----11-13-14-13-11-----------11-13-11----11----------|
D|--12----------------14--12-14----------14-------------|
A|------------------------------------------------------|
E|------------------------------------------------------|

e|------------------------------------------------------|
B|------------------------------------------------------|
G|--------11-13-11------14-13-11--16-14-13--------11~---|
D|--12-14----------14-----------------------------------|
A|------------------------------------------------------|
E|------------------------------------------------------|


ahora quiero que entiendas
que solo soy uno mas
y si me ves de vuelta
me falta mucho por llegar.
ya ves, esto es asi
y esa es mi gran verdad.
no he perdido la ilucion
nome interpretes mal.

B            A
--quiero cantar,
           G       DD-AA
quiero seguir asi.
B            A         G
--debo pensar que lo hago por mi,

aunque estes ahi.


F#       C#
--cantar,--cantar
D          E        F
--es algo mas que una intencion.
F#       C#
--cantar,--cantar
D          E        F
--es algo mas que una intencion.
F#       C#
--cantar,--gritar
C             E          F
--hasta que aguante el corazon

solo:
(F#-C#-D-E)x4 => pm
(F#-C#-D-E-F)x4
(F#-C#-D-E)x1 => pm

ahora me siento bien
si tu me entiendes.
no quiero anadir mas confusion
en tu mente.
y si ahora estoy aqui es solo
porque asi lo quise.


no tengo nada que decir;
o tal vez si, si tu lo sientes.
                     F#
necesito estar enpaz...
                     F#
necesito tu amistad...


es algo mas que una intencion,
es algo mas que una intencion,
es algo mas...


esto x2
e|------------------------------------------------------|
B|--7-7-10-7~-------------------------------------------|
G|--------------6-6-9-6~--------------------------------|
D|------------------------7-7-9-7~--6-6-7-6~------------|
A|------------------------------------------------------|
E|------------------------------------------------------|

cuando entra la flauta

esto x2
e|------------------------------------------------------|
B|--7-7-10-7~-------------------------------------------|
G|--------------6-6-9-6~--------------------------------|
D|------------------------7-7-9-7-6---6-7-9-------------|
A|----------------------------------9-------------------|
E|------------------------------------------------------|


esto x2
e|------------------------------------------------------|
B|--7~-7------------------------------------------------|
G|-------6~--6-6p7~---6-7-6----6~-----------------------|
D|--------------------------9~--------------------------|
A|------------------------------------------------------|
E|------------------------------------------------------|


B            A
--quiero cantar,
           G       DD-AA
quiero seguir asi.
B            A         G
--debo pensar que lo hago por mi,

aunque estes ahi.


F#       C#
--cantar,--cantar
D          E        F
--es algo mas que una intencion.
F#       C#
--cantar,--cantar
D          E        F
--es algo mas que una intencion.
F#       C#
--cantar,--gritar
C             E          F
--hasta que aguante el corazon


(F#-C#-D-E)x4 =>pm


F#       C#
--cantar,--cantar
D          E        F
--es algo mas que una intencion.
F#       C#
--cantar,--cantar
D          E        F
--es algo mas que una intencion.
F#       C#
--cantar,--gritar
C             E          F
--hasta que aguante el corazon

le dediko estaq cancion a todos los seguidores de mago en Costa Rica,
 CABRONES!!!
y a Kembly
Suggest correction
Give kudos to tab author, rate the tab!
1 2 3 4 5
comments
print report bad tab
guest
You may want to rate the tab now too:
select rating
Wanna post a correction for this tab? Suggest correction