Oops, an error
Loading. Please wait.

Más Que Una Intención Bass Tab

version 1
version 1

Whole song

Interactive

16 views 1 this week
no commentswrite comment
1 2 3 4 5
3 more votes to show rating
add to favorites
launch autoscroll
font size
0
reset
guitar tuner
Autoscroll
slow
fast
+/-
esc
set tempo
stop
Help us to improve Ultimate-Guitar.com Take our survey!
×
Quiero mandar un saludo a mis panas de la
Universidad Salesiana de Quito. Un saludo a mis panas del grupo
de música. Juan Pablo, Oscar ?Oso?,
 Christian, Lizbeth y Alejo ?Cachorro?.
Que viva ?Ecuador?, El Heavy Metal y Mago de Oz.

Intro
Min 00:00 Solo entran Guitarras

Min 00:10 Entra el Bajo.
G ---------------------------
D --4-----0------------------
A -----4------7---8---------- X2
E ---------------------------

Min 00:20
G -----------------------------------------------------------
D -4-4-4-4-4-4-4-4---------------0-0-0-0-0-0-0-0-------------
A ----------------4-4-4-4-4-4-4-4---------------7-7-7-7-8-8-8
E -----------------------------------------------------------

G -----------------------------------------------------------
D -4-4-4-4-4-4-4-4---------------0-0-0-0-0-0-0-0-------------
A ----------------4-4-4-4-4-4-4-4---------------7-7-7-7-8-8-8
E -----------------------------------------------------------

Min 00:32
G --------
D -4------
A --------
E --------

Min 00:37
G --------------------------------------
D -4-4------0-0-------------------------
A ------4-4------7-7-8----9-11-12-------
E -------------------------------9-9-10-

Min 00:45
G --------
D --------
A -7-7-7--
E --------

Min 00:47 ?Verso? I
G -----------------------------------------------------------
D -4-4-4-4-4-4-4-4---------------0-0-0-0-0-0-0-0-------------
A ----------------4-4-4-4-4-4-4-4---------------7-7-7-7-7-7-7  X4
E -----------------------------------------------------------

Min 01:08 ?Precoro? I
G -----------------------------------
D -----------------------------------
A -7---------------7-5--------------- Después va esto.
E --7-----5---3---------5-5-7----5---

G ------------------------------------------------------------
D ------------------------------------------------------------
A ------------------------------------------------------------
E -3-3-3-3-3-3-3-3-3-3-3-3-3-3-3-5-5-5-5-5-5-5-5-5-5-5-5-5-5-5


Min 01:22  ?Puente o Interludio?
G -----------------------------------------------------------
D -4-4-4-4-4-4-4-4---------------0-0-0-0-0-0-0-0-------------
A ----------------4-4-4-4-4-4-4-4---------------7-7-7-7-8-8-8
E -----------------------------------------------------------

G -----------------------------------------------------------
D -4-4-4-4-4-4-4-4---------------0-0-0-0-0-0-0-0-------------
A ----------------4-4-4-4-4-4-4-4---------------7-7-7-7-8-8-8
E -----------------------------------------------------------

Min 01:32 ?Verso? II
G -----------------------------------------------------------
D -4-4-4-4-4-4-4-4---------------0-0-0-0-0-0-0-0-------------
A ----------------4-4-4-4-4-4-4-4---------------7-7-7-7-7-7-7  X4
E -----------------------------------------------------------

Min 01:54 ?Precoro? II
G -----------------------------------
D -----------------------------------
A -7---------------7-5--------------- Después va unido esto
E --7-----5---3---------5-5-7----5---

G ------------------------------------------------------------
D ------------------------------------------------------------
A ------------------------------------------------------------
E -3-3-3-3-3-3-3-3-3-3-3-3-3-3-3-5-5-5-5-5-5-5-5-5-5-5-5-5-5-5

Min 02:07 ?Coro?
G -----------------------------------------------------------
D -4-4-4-4-4-4-4-4---------------0-0-0-0-0-0-0-0-------------
A ----------------4-4-4-4-4-4-4-4---------------7-7-7-7-8-8-8 X3
E -----------------------------------------------------------

Min 02:24 ?Solo de Guitarra? El bajo hace esto:
G -----------------------------------------
D -----------------11-11-11-11-11-11-11-11-
A -9-9-9-9-9-9-9-9-------------------------
E -----------------------------------------

G -------------------------9-9-9-9-9-9-9-9-
D -12-12-12-12-12-12-12-12-----------------
A -----------------------------------------
E -----------------------------------------
  Las dos partes del min 02:24 son uno solo y
  se repiten 4 veces

Min 02:46
G -----------------------------------------------------------
D -4-4-4-4-4-4-4-4---------------0-0-0-0-0-0-0-0-------------
A ----------------4-4-4-4-4-4-4-4---------------7-7-7-7-8-8-8 X3
E -----------------------------------------------------------

Min 03:01  ?Final del solo?.
G -----------------------------------------
D -----------------11-11-11-11-11-11-11-11-
A -9-9-9-9-9-9-9-9-------------------------
E -----------------------------------------
 Esta parte y la de abajo son una sola y se usan para
 terminar el solo.
G -------------------------9-9-9-9-9-9-9-9-
D -12-12-12-12-12-12-12-12-----------------
A -----------------------------------------
E -----------------------------------------

Min 03:10 ?Solo de bajo y teclado?
G -9------------------------------
D ---4---4--------0-----0---------
A ---------4---2-4----4---4-2-4---
E --------------------------------

G -------------------------------
D -4-----4--------0-----0--------
A ---------4---2-4----4---4-2-4--
E -------------------------------

Bajo y la voz de Jose.
G --------------------------------
D -4-----4--------0-----0---------
A ---------4---2-4----4---4-2-4--- X15
E --------------------------------

Min 03:38 Pre solo de ?Violín?
G -----------------------------------------------------------
D -4-4-4-4-4-4-4-4---------------0-0-0-0-0-0-0-0-------------
A ----------------4-4-4-4-4-4-4-4---------------7-7-7-7-7-7-7  X4
E -----------------------------------------------------------

Min 04:49 ?Solo de Violín?.
G --------------------------
D -4-4-------0-0------------
A ------4-4--------7-7------ X2 Y luego esto.
E --------------------------

G -----------------------------------------------------------
D -4-4-4-4-4-4-4-4---------------0-0-0-0-0-0-0-0-------------
A ----------------4-4-4-4-4-4-4-4---------------7-7-7-7-7-7-7  X2
E -----------------------------------------------------------

Min 05:22 ?Precoro?
G -----------------------------------
D -----------------------------------
A -7---------------7-5--------------- Después va unido esto
E --7-----5---3---------5-5-7----5---

G ------------------------------------------------------------
D ------------------------------------------------------------
A ------------------------------------------------------------
E -3-3-3-3-3-3-3-3-3-3-3-3-3-3-3-5-5-5-5-5-5-5-5-5-5-5-5-5-5-5

Min 02:07 ?Coro?
G -----------------------------------------------------------
D -4-4-4-4-4-4-4-4---------------0-0-0-0-0-0-0-0-------------
A ----------------4-4-4-4-4-4-4-4---------------7-7-7-7-8-8-8
E -----------------------------------------------------------

Esto va a ir hasta el final de la canción
 lo repiten las veces que sean necesarias.
Suggest correction
Give kudos to tab author, rate the tab!
1 2 3 4 5
comments
print report bad tab
guest
You may want to rate the tab now too:
select rating
Wanna post a correction for this tab? Suggest correction