Oops, an error
Loading. Please wait.

Obertura Mdxx Tab

46 views 1 this week
no commentswrite comment
1 2 3 4 5
3 more votes to show rating
add to favorites
launch autoscroll
font size
0
reset
how to read this tab
guitar tuner
Autoscroll
slow
fast
+/-
esc
set tempo
stop
Help us to improve Ultimate-Guitar.com Take our survey!
×
Playa 0:00

Nota 0:07

E-------
B-------
G--7----
D--0----
A-------
E-------

Instrumento 0:21

E-10-8-----10-12-10-8-----10-12-13--13-12-10-8-12----
B------10-------------10--------------------------10-
G----------------------------------------------------   x2
D----------------------------------------------------
A----------------------------------------------------
E----------------------------------------------------

Instrumento 1:07

E---------
B---------
G----3-2--
D--3------
A---------
E---------

Instrumento 1:25

E------------
B----3-------
G--2---0-2---
D------------
A------------
E------------

Piano 1:38 (repetidamente)

E-------------------------
B-------1---3-1-4---3---1-
G-0-3-2---3-------3---2---
D-------------------------
A-------------------------
E-------------------------

Instrumento 2:25

E-10-12-13-- GAIA -10-12-13-- GAIA -10-12-13-- GAIA --
B-----------      -----------      -----------      --
G-----------      -----------      -----------      --
D-----------      -----------      -----------      --
A-----------      -----------      -----------      --
E-----------      -----------      -----------      --

Instrumento 2:31                                              X2

E--------------------------------
B-10-11-8-10----8----------------
G------------10---9-10-7-9-10-9--
D--------------------------------
A--------------------------------
E--------------------------------

Instrumento 2:41

E------------------------------------------------10-8---------------
B-------------8-10-11-10-8------------------8-10------11-10-8-------
G-10-9-7-9-10--------------10-9-10-9-7-9-10-------------------10-9--
D-------------------------------------------------------------------
A-------------------------------------------------------------------
E-------------------------------------------------------------------

Continúa

E-----------------------------------------------
B-------------8-10-11-8-10----8-----------------
G-10-9-7-9-10--------------10---9-10-7-9-10-9---
D-----------------------------------------------
A-----------------------------------------------
E-----------------------------------------------

Instrumento 2:49

E--------------------------------------------------------------------
B----------------------------8-9--------------8-9--9-10-12--12-14-15-
G-7-9-10--7-9-10--7-9-10--10-------7-9-10--10------------------------
D--------------------------------------------------------------------
A--------------------------------------------------------------------
E--------------------------------------------------------------------

Instrumento 2:57

E-10-12-13-17--17-18--10-12-13-15--15-17--10-12-13------------
B--------------------------------------------------12--12-13--
G-------------------------------------------------------------
D-------------------------------------------------------------
A-------------------------------------------------------------
E-------------------------------------------------------------

Instrumento 3:04

E-------------------------
B-------------------------
G-------------------------
D-------------------------
A-0-0-0-0-0-0-0-0-0-0-0-0-
E-------------------------

Instrumento 3:07

E----------------
B---------8--10--
G--7--10---------
A----------------
D----------------
E----------------


CORO: ¡GAIA!


Final 3:47

E------
B------
G--7---
D--0---
A------
E------

Magovitoroz
Suggest correction
Give kudos to tab author, rate the tab!
1 2 3 4 5
comments
print report bad tab
guest
You may want to rate the tab now too:
select rating
Wanna post a correction for this tab? Suggest correction