Oops, an error
Loading. Please wait.

Para Ella Tab

58 views 1 this week
no commentswrite comment
1 2 3 4 5
3 more votes to show rating
add to favorites
×
Save as Personal and add changes to this tab that will be seen only by you. Learn more ›
×
You can save this tab as Personal to edit and correct it or add notes. All changes will be seen only by you. Learn more »
save as personal
new!
launch autoscroll
font size
0
reset
how to read this tab
guitar tuner
Autoscroll
slow
fast
+/-
esc
set tempo
stop
Una cancion muy controvercial de que si es plageada que si no solo se que
es musica y a darle Cabrnonessss!!!

Intro:
Dm C Bb F A X2

Dm                        C
Se escondia en los viejos pilares de la escuela
           Bb               F               A
Para esconder al niño que pronto iba a llegar
      Dm                   C
Que dificil esconder en un pobre delantal
          Bb     F   A
Los tres meses de mas.


3.-----7-----7---5--7-7----------
4.-----7-----7---5--7-7----------
5.-----5-----5---3--5-5----------
6.-------------------------------
  Y se fue a ver al cura

3.5---7--9-7--5---4-5-5-----------
4.5---7--9-7--5---4-5-5-----------
5.3---5--7-5--3---2-3-3-----------
6.--------------------------------
  Que le dijo era pecado

3.5-7--7-------42-4-4-------------
4.5-7--7-------42-4-4-------------
5.3-5--5-------20-2-2-------------
6.--------------------------------
  Y luego a un abogado

3.---------2--4---2-2-------------
4.3----3---2--4---2-2-------------
5.3----3---0--2---0-0-------------
6.1----1--------------------------
  Le hablo de lo ilegal

3.7---7----5--7--7--5--7---7------
4.7---7----5--7--7--5--7---7------
5.5---5----3--5--5--3--5---5------
6.--------------------------------
  Mientras el profe de ciencias

3.5----7--7--4--5---7----5---5----
4.5----7--7--4--5---7----5---5----
5.3----5--5--2--3---5----3---3----
6.--------------------------------
  Le hablaba de la inconsciencia

3.4--5--7-4--5-----2-4------------
4.4--5--7-4--5---3-2-4------------
5.2--3--5-2--3---3-0-2------------
6.---------------1----------------
  De la juventud actual

3.5---7---9--9---9---7--9-9-------
4.5---7---9--9---9---7--9-9-------
5.3---5---7--7---7---5--7-7-------
6.--------------------------------
  Los que juzgan sin sentido

3.4--57----5---4-5----------------
4.4--57----5---4-5----------------
5.2--35----3---2-3----------------
6.--------------------------------
  El amor y el dolor

3.4---5---7---5-------4---2-4-4---
4.4---5---7---5-------4---2-4-4---
5.2---3---5---3-------2---0-2-2---
6.--------------------------------
  Y en el vientre hay mas latidos

3.-------2-2---4-2-2--------------
4.3---3--2-2---4-2-2--------------
5.3---3--0-0---2-0-0--------------
6.1---1---------------------------
  Que su pobre corazon

3.5--7-9----7--9-7----------------
4.5--7-9----7--9-7----------------
5.3--5-7----5--7-5----------------
6.--------------------------------
  El amor y el dolor

3.4----5--7---7---7---5-7-7-------
4.4----5--7---7---7---5-7-7-------
5.2----3--5---5---5---3-5-5-------
6.--------------------------------
  Y en el vientre mas latidos

3.4------5--7-7---5-4-2-----------
4.4------5--7-7---5-4-2-----------
5.2------3--5-5---3-2-0-----------
6.--------------------------------
  Que en su pobre corazón

Dm                     C
cuando agosto era 21 la encontraron boca arriba
        Bb                  F           A
con la mirada perdida y su viejo delantal
        Dm                      C
y en el bolso de el colegio dibujado un corazon
       Bb                  F   A
y una frase que decia tu y yo

3.7-7--9-9--------7-7--5-5---------7-7--9-9---------7-7--5-5--4-4--2---
4.7-7--9-9--------7-7--5-5---------7-7--9-9---------7-7--5-5--4-4--2---
5.5-5--7-7--------5-5--3-3---------5-5--7-7---------5-5--3-3--2-2--0---
6.---------------------------------------------------------------------
          Tu y yo          Tu y yo          Tu y yo        Tu y yo

Nota:Los acordes van arpegeados

Pues espero sea de su agrado, lo ultimo no es pero pues nomas por poner
algo para outtro y pues esta es mi segunda colaboracion que hago espero
sea de su agrado y pues se la dedico a mi princesa Adriana te amo solo
cuenta los meses amor ya falta poco.
Suggest correction
Give kudos to tab author, rate the tab!
1 2 3 4 5
comments
print report bad tab
guest
Wanna post a correction for this tab? Suggest correction