Oops, an error
Loading. Please wait.

Polla Dura No Cree En Dios Bass

478 views 3 this week
no commentswrite comment
1 2 3 4 5
3 more votes to show rating
add to favorites
launch autoscroll
font size
0
reset
guitar tuner
×
Best way to learn
"Polla Dura No Cree En Dios"
Autoscroll
slow
fast
+/-
esc
set tempo
stop
Algunas pautas:

-Riff 2?: se parece al Riff 2
-En el pedazo (se toca muy rápido) lo importante es que se oiga 
 la guitarra, no tanto el bajo, si es muy difícil se lo puede omitir
-Como casi en todas las canciones de mago, durante el solo de 
 guitarra el bajo no se oye mucho, basta can repetir esos 5-55-5-55-55-55


Riff 1 (0:17 - 0:28)                              (se toca muy rápido)
G|-----------------|------------|   -----------------|------------|
D|-----------------|------------|   -----------------|------------|
A|-----------------|----5-3-2---|   -----------------|----5-3-2---|  x3
E|--/5-55-5-55-55--|--5---------|   ---5-55-5-55-55--|--5---------|

G|--------------------------------|-------------
D|--------------------------------|-------------
A|----5-3-2-----5-3-2-----5-3-2---|-----2-3-4---
E|--5---------5---------5---------|---5---------   (tienes que ir...)

Riff 2 (0:28 - 0:49)     (a donde te lleven los pies...)
G|---------------------------------------------|---------------
D|---------------------------------------------|---------------
A|---5-55-5-55-55----------------5-55-5-55-55--|--------------- (polla dura no
E|-----------------5-55-5-55-55----------------|---0-2-3-4-5---  cree en Dios)

G|----------------------------------  -------------------------------
D|----------------------------------  -------------------------------
A|----------------------------------  --------5-3-2-------5-3-2------
E|--5-55-5-55-55--5--5-55-5-55-55---  ---5-55--------5-55--------5---  pausa...

Riff 1 (0:50 - 1:00)                              (se toca muy rápido)
G|-----------------|------------|   -----------------|------------|
D|-----------------|------------|   -----------------|------------|
A|-----------------|----5-3-2---|   -----------------|----5-3-2---|  x3
E|---5-55-5-55-55--|--5---------|   ---5-55-5-55-55--|--5---------|

G|--------------------------------|-------------
D|--------------------------------|-------------
A|----5-3-2-----5-3-2-----5-3-2---|-----2-3-4---
E|--5---------5---------5---------|---5---------   (fuera de mi...)


Riff 2? (1:01 - 1:41)    (al anochecer...)
G|---------------------------------------------|---------------
D|---------------------------------------------|---------------
A|---5-55-5-55-55----------------5-55-5-55-55--|--------------- (y la brisa me
E|-----------------5-55-5-55-55----------------|---0-2-3-4-5---   despereza)

G|------------------------------------------------------------------
D|------------------------------------------------------------------
A|--------------------------------5-55-5-55-55-5--------------------   x4
E|--55-5-55-55-5---88-8-88-88-8--------------------8-88-8-88-88-8---

G|----------------------------------------------------
D|----------------------------------------------------
A|----------------------------------------------------
E|--5-55-5-55-55--5--5-55-5-55-55---5--5-55-5-55-55---     pausa...

Riff 3 (1:43 - 3:07)
G|---------------------------------------------------
D|---------------------------------------------------
A|-------4-7--7-10-9--------4-7--7-10-10-10-10-9-7---   x2
E|--5--5---------------5--5--------------------------

G|--------------------------------------------------------
D|--------------------------------------------------------
A|-----3------3------3-------------3------3------3--------   x3
E|--55---5-55---5-55---5-55---5-55---5-55---5-55---5-55---

G|------------------------------------------------------------------
D|------------------------------------------------------------------  \
A|--------------------------------5-55-5-55-55-5--------------------  |
E|--55-5-55-55-5---88-8-88-88-8--------------------8-88-8-88-88-8---  | Ambos se
                                                                      | repiten
G|------------------------------------------------------------------  | 3 veces
D|------------------------------------------------------------------  |
A|--------------------------------5-55-5-55-55-5---7-77-7-77-77-7---  /
E|--55-5-55-55-5---88-8-88-88-8-------------------------------------

G|----------------------------------------------------------------
D|----------------------------------------------------------------   se repite
A|---------------------------------------------------------------- (2:48 - 3:07)
E|--5-55-5-55-55--5--5-55-5-55-55--5--5-55-5-55-55--5--5-55-5-55--

Riff 1 (3:07 - 3:21)                              (se toca muy rápido)
G|-----------------|------------|   -----------------|------------|
D|-----------------|------------|   -----------------|------------|
A|-----------------|----5-3-2---|   -----------------|----5-3-2---|  x3
E|--/5-55-5-55-55--|--5---------|   ---5-55-5-55-55--|--5---------|

G|--------------------------------|-------------
D|--------------------------------|-------------
A|----5-3-2-----5-3-2-----5-3-2---|-----2-3-4---
E|--5---------5---------5---------|---5---------   (con lo que nunca tendrán...)

Riff 2 (3:22 - 4:20)     (no me hablen de Dios...)
G|---------------------------------------------|---------------
D|---------------------------------------------|---------------
A|---5-55-5-55-55----------------5-55-5-55-55--|--------------- (polla dura no
E|-----------------5-55-5-55-55----------------|---0-2-3-4-5---  cree en Dios)

G|------------------------------------------------------------------
D|------------------------------------------------------------------
A|--------------------------------5-55-5-55-55-5--------------------   x7
E|--55-5-55-55-5---88-8-88-88-8--------------------8-88-8-88-88-8---

G|-----------------------------------------------------|-------
D|-----------------------------------------------------|-------
A|--------------------------------5-55-5-55-55-5---7---|-------
E|--55-5-55-55-5---88-8-88-88-8------------------------|---5---

Comentarios o sugerencias: javierthellaeche@
Suggest correction
Give kudos to tab author, rate the tab!
1 2 3 4 5
comments
print report bad tab
guest
You may want to rate the tab now too:
select rating
Wanna post a correction for this tab? Suggest correction