Oops, an error
Loading. Please wait.

Por Volver A Tenerte Tab

version 1
version 1

Whole song

160 views 3 this week
no commentswrite comment
1 2 3 4 5
3 more votes to show rating
add to favorites
×
Save as Personal and add changes to this tab that will be seen only by you. Learn more ›
×
You can save this tab as Personal to edit and correct it or add notes. All changes will be seen only by you. Learn more »
save as personal
new!
launch autoscroll
font size
0
reset
how to read this tab
guitar tuner
Autoscroll
slow
fast
+/-
esc
set tempo
stop
esta es la verdadera trancripcion de
esta magnifica cancion de mago de oz

esta la saque de puro oido
y es identica a la version original

me consto mucho pro aqui esta

e|-----------------|-----------------|-----------------|-----------------|
a|-3---------------|-3---------------|-3---------------|-3---------------|
d|-----------------|-----------------|-----------------|-----------------|
g|---0-------0---0-|---0-------0---0-|---0-------0---0-|---0-------0---0-|
b|-----1---1---1---|-----1---1---1---|-----1---1---1---|-----1---1---1---|
e|-------0---------|-------0---------|-------0---------|-------0---------|


e|-----------------|-----------------|-----------------|---------|-------|
a|-3---------------|-3---------------|-3---------------|-3-------|-3--2--|
d|-----------------|-----------------|-----------------|---------|-------|
g|---0-------0---0-|---0-------0---0-|---0-------0---0-|---0-----|--0--0-|
b|-----1---1---1---|-----1---1---1---|-----1---1---1---|-----1---|-------|
e|-------0---------|-------0---------|-------0---------|-------0-|-------|
       por volver a tenerte lo daria todo


e|-----------------|-----------------|-----------------|-----------------|
a|-0---------------|-0---------------|-0---------------|-0---------------|
d|-----------------|-----------------|-----------------|-----------------|
g|---2-------2---2-|---2-------2---2-|---2-------2---2-|---2-------2---2-|
b|-----1---1---1---|-----1---1---1---|-----1---1---1---|-----1---1---1---|
e|-------0---------|-------0---------|-------0---------|-------0---------|
    por que tu me quisieras  anuque fuese un poco

e|-----------------|-1---------------|-3---------------|-----------------|
a|-3---------------|-----------------|-----------------|-----------------|
d|-----------------|-----------------|-----------------|-0---------------|
g|---2-------2---2-|---2-------2---2-|---0-------0---0-|---0-------0---0-|
b|-----1---1---1---|-----1---1---1---|-----3---3---3---|-----3---3---3---|
e|-------1---------|-------1---------|-------3---------|-------3---------|
   por que tu eres mi amor y yo sin ti no soy nada


e|-----------------|-----------------|-----------------|---------|-------|
a|-3---------------|-3---------------|-3---------------|-3-------|-3--2--|
d|-----------------|-----------------|-----------------|---------|-------|
g|---0-------0---0-|---0-------0---0-|---0-------0---0-|---0-----|--0--0-|
b|-----1---1---1---|-----1---1---1---|-----1---1---1---|-----1---|-------|
e|-------0---------|-------0---------|-------0---------|-------0-|-------|
       he intentado olvidarte de mil maneras


e|-----------------|-----------------|-----------------|-----------------|
a|-0---------------|-0---------------|-0---------------|-0---------------|
d|-----------------|-----------------|-----------------|-----------------|
g|---2-------2---2-|---2-------2---2-|---2-------2---2-|---2-------2---2-|
b|-----1---1---1---|-----1---1---1---|-----1---1---1---|-----1---1---1---|
e|-------0---------|-------0---------|-------0---------|-------0---------|
    entregandome a otras aunque no las quisiera

e|-----------------|-1---------------|-3---------------|---------|-------|
a|-3---------------|-----------------|-----------------|---------|---4---|
d|-----------------|-----------------|-----------------|-0-------|-0-----|
g|---2-------2---2-|---2-------2---2-|---0-------0---0-|---0-----|--0-0--|
b|-----1---1---1---|-----1---1---1---|-----3---3---3---|-----3---|-------|
e|-------1---------|-------1---------|-------3---------|-------3-|-------|
   pero daba igual por que siempre estabas tu

e|-----------------|-3---------------|-----------------|-----------------|
a|-3---------------|-----------------|-2---------------|-0---------------|
d|-----------------|-----------------|-----------------|-----------------|
g|---2-------2---2-|---0-------0---0-|---0-------0---0-|---2-------0---0-|
b|-----1---1---1---|-----3---3---3---|-----0---0---0---|-----1---1---1---|
e|-------1---------|-------3---------|-------0---------|-------0---------|
    por volver a tenerte,             por jugar con tu pelo

e|-----------------|-1---------------|-3---------------|-3-------|-3--2--|
a|-3---------------|-----------------|-----------------|---------|-------|
d|-----------------|-----------------|-----------------|---------|-------|
g|---2-------2---2-|---2-------2---2-|---0-------0---0-|---0-----|--0--0-|
b|-----1---1---1---|-----1---1---1---|-----3---3---3---|-----3---|-------|
e|-------1---------|-------1---------|-------3---------|-------3-|-------|
     por mirarte a los ojos y saberte mia

e|-0---------------|-3---------------|-----------------|-----------------|
a|-----------------|-----------------|-2---------------|-0---------------|
d|-----------------|-----------------|-----------------|-----------------|
g|---2-------2---2-|---0-------0---0-|---0-------0---0-|---2-------0---0-|
b|-----1---1---1---|-----3---3---3---|-----0---0---0---|-----1---1---1---|
e|-------1---------|-------3---------|-------0---------|-------0---------|
    por volver a tenerte,             hoy daria el cielo

e|-1---------------|
a|-----------------|
d|-----------------|
g|---2-------2---2-|
b|-----1---1---1---|
e|-------1---------|    F                 G
     por que si tu no estas esto es el infierno

[ch]C         [ch]Am[/ch] [ch]F[/ch]          SOL[/ch]
Que será de mi si me dejas ahora
     [ch]C              [ch]Am[/ch] [ch]F[/ch]          SOL[/ch]
Dime que será de mí si me dejas ahora
    [ch]F[/ch]                   [ch]Em[/ch]
No volveré a creer en el amor de otra mujer
    [ch]F                      SOL[/ch]
No volvere a inventar un paraíso para nadie


      [ch]C        [ch]Am[/ch] [ch]F[/ch]          SOL[/ch]
Dime que será de mí si me dejas ahora
      [ch]C        [ch]Am[/ch] [ch]F[/ch]          SOL[/ch]
Dime que será de mí si me dejas ahora
    [ch]F[/ch]                    [ch]Em[/ch]
No volveré a creer en el amor de otra mujer
    [ch]F                                SOL[/ch]
No volvere a inventar noooooooo un paraíso para nadie


       [ch]C       [ch]Am[/ch] [ch]F[/ch]          SOL[/ch]
Dime que será de mí si me dejas ahora
       [ch]C       [ch]Am[/ch] [ch]F[/ch]          SOL[/ch]
Dime que sera de mi si me dejas ahora

(rasgueo en sol)

e|-----------------|-----------------|-1-----------|-3-----------------|
a|-3---------------|-3---------------|-------------|-------------------|
d|-----------------|-----------------|-------------|-------------------|
g|---0-------0---0-|---0-------0---0-|---2-------2-|---0-------0---0---|
b|-----1---1---1---|-----1---1---1---|-----1---1---|-----3---3---3-----|
e|-------0---------|-------0---------|-------1-----|-------3-----------|
       por volver a tenerte   lo daria todo           uoooooooooooo...
   [ch]C[/ch]
Ohhhhhhh


bn ps espero que les guste

solo se usan:
[ch]C Am Em F G[/ch]

esta muy sencilla
Suggest correction
Give kudos to tab author, rate the tab!
1 2 3 4 5
comments
print report bad tab
guest
Wanna post a correction for this tab? Suggest correction