Oops, an error
Loading. Please wait.

Por Volver A Tenerte Tab

version 2
version 2

Whole song

103 views 1 this week
no commentswrite comment
1 2 3 4 5
3 more votes to show rating
add to favorites
launch autoscroll
font size
0
reset
how to read this tab
guitar tuner
×
Best way to learn
"Por Volver A Tenerte"
Autoscroll
slow
fast
+/-
esc
set tempo
stop
Esta es una rola que me gusta mucho espero y sea de su agrado
ami si me suena como la original pero hay chequen ustedes.

1|----0----|----0----|----0----|----0----|
2|-----2---|-----2---|-----2---|-----2---|
3|---0--0--|---0--0--|---0--0--|---0--0--|
4|--2----2-|--2----2-|--2----2-|--2----2-|
5|-3-------|-3-------|-3-------|-3-------|
6|---------|---------|---------|---------|
Intro


1|----0----|----0----|----0----|----0----|-----|
2|-----2---|-----2---|-----2---|-----2---|-----|
3|---0--0--|---0--0--|---0--0--|---0--0--|-----|
4|--2----2-|--2----2-|--2----2-|--2----2-|-2---|
5|-3-------|-3-------|-3-------|-3-------|--3--|
6|---------|---------|---------|---------|---3-|
Por volver a tenerte lo daria todo

1|----0----|----0----|----0----|----0----|
2|-----1---|-----1---|-----1---|-----1---|
3|---2--2--|---2--2--|---2--2--|---2--2--|
4|--2----2-|--2----2-|--2----2-|--2----2-|
5|-0-------|-0-------|-0-------|-0-------|
6|---------|---------|---------|---------|
Por que tu me quisieras aunque fuese un poco

1|----1----|----1----|----3----|----3----|
2|-----1---|-----1---|-----0---|-----0---|
3|---2--2--|---2--2--|---0--0--|---0--0--|
4|--3----3-|--3----3-|--0----0-|--0----0-|
5|-3-------|-3-------|-2-------|-2-------|
6|---------|---------|---------|---------|
Por que tu eres mi amor y yo sin ti no soy nada


1|----0----|----0----|----0----|----0----|-----|
2|-----2---|-----2---|-----2---|-----2---|-----|
3|---0--0--|---0--0--|---0--0--|---0--0--|-----|
4|--2----2-|--2----2-|--2----2-|--2----2-|-2---|
5|-3-------|-3-------|-3-------|-3-------|--3--|
6|---------|---------|---------|---------|---3-|
He intentado olvidarte de mil maneras

1|----0----|----0----|----0----|----0----|
2|-----1---|-----1---|-----1---|-----1---|
3|---2--2--|---2--2--|---2--2--|---2--2--|
4|--2----2-|--2----2-|--2----2-|--2----2-|
5|-0-------|-0-------|-0-------|-0-------|
6|---------|---------|---------|---------|
Entregándome a otras aunque no las quisiera

1|----1----|----1----|----3----|----3----|------|
2|-----1---|-----1---|-----0---|-----0---|------|
3|---2--2--|---2--2--|---0--0--|---0--0--|------|
4|--3----3-|--3----3-|--0----0-|--0----0-|-0----|
5|-3-------|-3-------|-2-------|-2-------|--2---|
6|---------|---------|---------|---------|---3--|
Pero daba iguial porque siempre estabas tu


1|----1----|----3----|----0----|----0----|
2|-----1---|-----0---|-----0---|-----1---|
3|---2--2--|---0--0--|---0--0--|---2--2--|
4|--3----3-|--0----0-|--2----0-|--2----2-|
5|-3-------|-2-------|-2-------|-0-------|
6|---------|---------|---------|---------|
Por volver a tenerte, por jugar con tu pelo

1|----1----|----1----|----3----|----3----|-----|
2|-----1---|-----1---|-----0---|-----0---|-----|
3|---2--2--|---2--2--|---0--0--|---0--0--|-----|
4|--3----3-|--3----3-|--0----0-|--0----0-|-0---|
5|-3-------|-3-------|-2-------|-2-------|--2--|
6|---------|---------|---------|---------|---3-|
Por miratrte a los ojos y saberte mia

1|----1----|----3----|----0----|----0----|
2|-----1---|-----0---|-----0---|-----1---|
3|---2--2--|---0--0--|---0--0--|---2--2--|
4|--3----3-|--0----0-|--2----0-|--2----2-|
5|-3-------|-2-------|-2-------|-0-------|
6|---------|---------|---------|---------|
Por volver a tenerte hoy daría el cielo

1|----1----|----1----|
2|-----1---|-----1---|
3|---2--2--|---2--2--|
4|--3----3-|--3----3-|
5|-3-------|-3-------|
6|---------|---------|    G
Por que si tú no estás esto es el infierno.


[ch]C         [ch]Am[/ch] [ch]F[/ch]          SOL[/ch]
Que será de mi si me dejas ahora
[ch]C              [ch]Am[/ch] [ch]F[/ch]          SOL[/ch]
Dime que será de mí si me dejas ahora
[ch]F[/ch]                  [ch]Em[/ch]
No volveré a creer en el amor de otra mujer
[ch]F                    SOL[/ch]
No volvere a inventar un paraíso para nadie


[ch]C              [ch]Am[/ch] [ch]F[/ch]          SOL[/ch]
Dime que será de mí si me dejas ahora
[ch]C              [ch]Am[/ch] [ch]F[/ch]          SOL[/ch]
Dime que será de mí si me dejas ahora
[ch]F[/ch]                  [ch]Em[/ch]
No volveré a creer en el amor de otra mujer
[ch]F                              SOL[/ch]
No volvere a inventar noooooooo un paraíso para nadie


[ch]C              [ch]Am[/ch] [ch]F[/ch]          SOL[/ch]
Dime que será de mí si me dejas ahora
                                        1|------3-|
                                        2|-----0--|
                                        3|----0---|
                                        4|---0----|
[ch]C              [ch]Am[/ch] [ch]F[/ch]          SOL[/ch]     5|--2-----|
Dime que será de mí si me dejas ahora...6|-3------|
1|---0---|---0---|---0---|---0---|
2|----2--|----2--|----2--|----2--|
3|--0--0-|--0--0-|--0--0-|--0--0-|
4|-2----2|-2----2|-2----2|-2----2|
5|3------|3------|3------|3------|
6|-------|-------|-------|-------|
Por volver a tenerte lo daria todo

1.------0-|
2.-----1--|
3.----0---|
4.---2----|
5.--3-----|
6.-0------|

Esta cancion esta dedicada para mi Princesa. Adriana te amo nunca
lo olvides siempre estare a tu lado.
Suggest correction
Give kudos to tab author, rate the tab!
1 2 3 4 5
comments
print report bad tab
guest
You may want to rate the tab now too:
select rating
Wanna post a correction for this tab? Suggest correction