Oops, an error
Loading. Please wait.

Prologo Tab

version 1
version 1

Whole song

10 views 1 this week
no commentswrite comment
1 2 3 4 5
3 more votes to show rating
add to favorites
launch autoscroll
font size
0
reset
how to read this tab
guitar tuner
Autoscroll
slow
fast
+/-
esc
set tempo
stop
Help us to improve Ultimate-Guitar.com Take our survey!
×
bueno esta es una transcripcion del prologo del disco finisterra.


primero nada mas se oye como un coro de iglesia vocalizando y despues.
un niño empieza a decir....

' dicen que de todos los animales de la creacion, el hombre es el unico, que bebe sin
tener sed, come sin tener hambre y habla sin tener nada que decir.
por eso es mejor forjar el alma que humillarla.'

este el fin del camino, es finisterra .....

despues de eso se empieza a oir una gaita y una flauta que tocan lo mismo y cada vez
suben mas el volumen.

lo que tocan la gaita y flauta transcrito a la guitarra quedaria:


 Esta parte sonaria mas bajo
e|----------------------------------------|----------------------------------------|
B|----------------------------------------|----------------------------------------|
G|----------------------------------------|----------------------------------------|
A|-------------5-5-5-5-------------5------|-7-7-7-7-5---5-5-5-5-7-8-7-5------------|
D|-5-5-5-5-7-8---------8-7-8-8-8-8---8-5--|-----------8-----------------8-7-8-7-5--|
E|----------------------------------------|----------------------------------------|


 Esta parte se acerca mas al tono que tocan la flauta y la gaita
e|----------------------------------------|----------------------------------------|
B|-------------3-3-3-3-------------3------|-5-5-5-5-3---3-3-3-3-5-6-5-3------------|
G|-3-3-3-3-5-6---------6-5-6-6-6-6---6-3--|-----------6-----------------6-5-6-5-3--|
A|----------------------------------------|----------------------------------------|
D|----------------------------------------|----------------------------------------|
E|----------------------------------------|----------------------------------------|


se toca esta parte varias veces y se va desvaneciendo. despues de esto.....  Satania.


bueno eso es todo espero que les suene es cuestion de oirlo y darle el tiempo.
preguntas,sugerencias,mentadas de madre etc. ahi esta mi correo y si no lo vieron
jackass19@  le ponen atame en el asunto.

Dedicado a los fans de Mago de Oz y al grupo, gracias por ser tan chingones ..l..

!! arriba el Rock !!!

sale al rato  !!! cabrones !!!.
Suggest correction
Give kudos to tab author, rate the tab!
1 2 3 4 5
comments
print report bad tab
guest
You may want to rate the tab now too:
select rating
Wanna post a correction for this tab? Suggest correction