Oops, an error
Loading. Please wait.

Prologo Tab

version 2
version 2

Whole song

19 views 1 this week
no commentswrite comment
1 2 3 4 5
3 more votes to show rating
add to favorites
launch autoscroll
font size
0
reset
how to read this tab
guitar tuner
Autoscroll
slow
fast
+/-
esc
set tempo
stop
Help us to improve Ultimate-Guitar.com Take our survey!
×
(0:40) Fondo de Flauta y Gaita Uillean

e|------------------------15--15-15-15------------------------15------------|
B|--15--15-15-15--17--18----------------18--17--18--18-18-18------18--15~---|
G|--------------------------------------------------------------------------|
D|--------------------------------------------------------------------------|
A|--------------------------------------------------------------------------|
E|--------------------------------------------------------------------------|

e|--17--17-17-17--15------15--15-15-15--17--18--17--15----------------------|
B|--------------------18--------------------------------18--17--18--17--15~-|
G|--------------------------------------------------------------------------|
D|--------------------------------------------------------------------------|
A|--------------------------------------------------------------------------|
E|--------------------------------------------------------------------------|

Es una rola muy sencilla, no es más que repetir lo mismo, para algunas otras
tabulaciones no duden en buscarme a 'hidra2@ saludos a todos los
seguidores de ésta gran banda y a Jéssica Capistrán.
Suggest correction
Give kudos to tab author, rate the tab!
1 2 3 4 5
comments
print report bad tab
guest
You may want to rate the tab now too:
select rating
Wanna post a correction for this tab? Suggest correction