Oops, an error
Loading. Please wait.

Resacosix In Hispania tab

version 1
version 1

Whole song

169 views 1 this week
no commentswrite comment
1 2 3 4 5
3 more votes to show rating
add to favorites
×
Save as Personal and add changes to this tab that will be seen only by you. Learn more ›
×
You can save this tab as Personal to edit and correct it or add notes. All changes will be seen only by you. Learn more »
launch autoscroll
font size
0
reset
how to read this tab
guitar tuner
edit
Autoscroll
slow
fast
+/-
esc
set tempo
stop
 intro:

|_[guitarra]_______________|
  G   D/F#Em  C   D   D      G   D/F#Em  C-BmAmG-D           D 
|--------------------------|--------------------------|    |----|
|--------------------------|--------------------------|    |----|
|--------------------------|--------------------------|    |----|
|-----7---9---5---7---7----|-----7---9---5-4-2---7~---| x2 |-7.-|
|-5---5---7---3---5---5----|-5---5---7---3-2-0-5-5~---|    |-5.-|
|-3------------------------|-3-----------------3------|    |----|

|_[violin]__________|
                      G                 D/F#
|-------------------|-------------10-------12-10-10-15-14-15-10-------------|
|-------10-13-12-10-|-12----10-12----13-13----------------------12----10-12-|
|----11-------------|----12----------------------------------------12-------|
|-12----------------|-------------------------------------------------------|
|-------------------|-------------------------------------------------------|
|-------------------|-------------------------------------------------------|
 Em         C                 D                 D 
|----10-12-10-------------------------------------------|
|-13----------13-12-10-12----------10-------10-13-12-10-|
|-------------------------12-11-12-------11-------------|
|-------------------------------------12----------------|
|-------------------------------------------------------|
|-------------------------------------------------------|
  G                 D/F#              Em
|-------------10-------12-10-10-15-14-15-10-------------|
|-12----10-12----13-13----------------------12----10-12-|
|----12----------------------------------------12-------|
|-------------------------------------------------------|
|-------------------------------------------------------|
|-------------------------------------------------------|
  C        Bm       Am       G        D 
|----12-10----------------------------------------------|
|-13-------13-12-10-------------------------10-13-12-10)|
|-------------------12-11-11-12~---------11-------------|
|------------------------------------(12----------------|
|-------------------------------------------------------|
|-------------------------------------------------------|


 versos
|_[guitarra]______| |_[violin]__________________________|
| Em  D   Em      | |                                   |
|---7---5---7-----| |-7---5---7----7h8|p7---9---10------|
|--8---7---8------| |-----------------|-----------------|
|-9---7---9-------| |-----------------|-----------------|
|-----------------| |-----------------|-----------------|
|-----------------| |-----------------|-----------------|
|-----------------| |-----------------|-----------------|

                    |-7---5---7----7h8|p7-5-------------|
                    |-----------------|-----8-7-5-------|
                    |-----------------|-----------------|
                    |-----------------|-----------------|
                    |-----------------|-----------------|
                    |-----------------|-----------------|

  Em  D   Em        Em  D   B
|---7---5---7-----|---7---5---------|
|--8---7---8------|--8---7----7-----|
|-9---7---9-------|-9---7----8------|
|-----------------|---------9-------|
|-----------------|-----------------|
|-----------------|-----------------|
 me encuentro mal por favor llevadme a un bar
  B
|---------------7-|-----------7-----|-7~-|
|-7-7---7-7---7-7-|---7-7---7-7---7-|-7~-| (rasgueado)
|-8-8---8-8---8-8-|---8-8---8-8---8-|-8~-|
|-9-9---9-9---9-9-|---9-9---9-9---9-|-9~-|
|-----------------|-----------------|----|
|-----------------|-----------------|----|
 yo no me siento nada bien llevadme a mi tambien

-se repite con los siguientes versos:
 se de un lugar donde hacen una pocion
 que da fuerza al espiritu enaltece al corazon


 estribillo
  E   E   A   E   A   E   F#  B
|---------------------------------|
|---------------------------------|
|---------------------------------|
|---------2-------2-----------4---| x2
|-2---2---0---2---0---2---4---2---|
|-0---0-------0-------0---2-------|
 venga, cabrones venid con los 'Mägo' a tomar cerveza,
 hasta que no salga el sol, de aquí no se mueve ni Dios.
 de fumar hay pa taparos, de beber hasta reventaros
 y si le echáis imaginación, de tirar de riñón un montón

...

siento frio, siento gente
siento quince, siento veinte

...

-se repite el verso con esta letra:
 al amanecer sólo hay que cumplir una Ley:
 'no despertar al prójimo y dejarle roncar bien'
 si piensas que tu vida nunca ha ido bien
 y quieres conocer a Emilio, a Richal y a Flores también

 Carlos, vuélcalo!!!

-se repite estribillo

-se repite estribillo un semitono mas alto:
  F   F   A#  F   A#  F   G   C
|---------------------------------|
|---------------------------------|
|---------------------------------|
|---------3-------3-----------5---| x2
|-3---3---1---3---1---3---5---3---|
|-1---1-------1-------1---3-------|

  D   F   A#  F   G   C   G   C     C
|---------------------------------|----|
|---------------------------------|----|
|---------------------------------|----|
|-7-------3-----------5-------5---|-5~-|
|-5---3---1---3---5---3---5---3---|-3~-|
|-----1-------1---3-------3-------|----|
 te duele la cabeza y te encuentras fatal
 ¡a la resaca se la vence volviendo a empezar!

-se repite estribillo un semitono mas alto

  G            A            D
|------------------------------------------------|
|------------------------------------------------|
|------------------------------------------------|
|---------------------------7xxxxxxxxxxxxxxxxxx--|
|-5xxxxxxxxxxx-7xxxxxxxxxxx-5xxxxxxxxxxxxxxxxxx--|
|-3xxxxxxxxxxx-5xxxxxxxxxxx----------------------|

-se repite intro

-variacion del intro

|_[guitarra]__________|
  G   D/F#Em  C-BmAmG
|---------------------|    (las primeras dos veces tocas
|---------------------|     la nota una vez, luego vuelves
|---------------------|      al ritmo normal.)
|-----7---9---5-4-2-7-| x4 |-7-7-|
|-5---5---7---3-2-0-5-|    |-5-5-|
|-3-------------------|    |-----|

|_[violin]______________________________________________|
  G                 D/F#
|-------------------------------------|
|----------12-10----10----10-13-12-10-|
|-12----12-------12-------------------|
|-------------------------------------|
|-------------------------------------|
|-------------------------------------|
  E                 C        Bm       Am
|----------10-------15-14-12-10----------------|
|-12----12----13-12-------------13-12-10-------|
|----------------------------------------12-11-|
|----------------------------------------------|
|----------------------------------------------|
|----------------------------------------------|
  G                 D/F#
|-------------------------------------|
|----------12-10----10----10-13-12-10-|
|-12----12-------12-------------------|
|-------------------------------------|
|-------------------------------------|
|-------------------------------------|
  E                 C        Bm       Am
|----------10----------------------------------|
|-12----12----13-12-------------10-12-13-12-10-|
|-----------------------9-11-12----------------|
|-------------------12-------------------------|
|----------------------------------------------|
|----------------------------------------------|

-se repite intro hasta que se desvanece

            
            
Suggest correction
Creating personal tab
Creating personal tab
You can edit any tab online and save it as your Personal.

You can edit, replace or remove any tab part or add personal notes – all changes will be seen only by you.

Personal tabs can be accessed anytime from any device, even offline.
Learn more »
Give kudos to tab author, rate the tab!
1 2 3 4 5
comments
print report bad tab
guest
Wanna post a correction for this tab? Suggest correction