Oops, an error
Loading. Please wait.

Resacosix In Hispania bass

46 views 1 this week
no commentswrite comment
1 2 3 4 5
3 more votes to show rating
add to favorites
×
Save as Personal and add changes to this tab that will be seen only by you. Learn more ›
×
You can save this tab as Personal to edit and correct it or add notes. All changes will be seen only by you. Learn more »
launch autoscroll
font size
0
reset
guitar tuner
edit
Autoscroll
slow
fast
+/-
esc
set tempo
stop
NOTA:

Espero y te ayude en algo esta tab.

Si necesitas una tab en especial, escríbeme o visita...


     Q.     E  S E  S E  S S    S S E  S E  S E  S E  S E     S E  S
G||--------------------------|-----------------------------|---------|
D||--------------------------|-----------------------------|---------|
A||-------------------5--5-5-|--L-5-7--7-7--7-3--3-3--3-5--|--5-5--5-|
E||---------3--3-3--3--------|-----------------------------|---------|


  E  S E  S E  S E  S E  S S    S S E  S E  S E.  E.  E     S E.
-----------------------------|---------------------------|--------|
-----------------------------|---------------------------|--------|
--5--5-5--5-----------5--5-5-|--L-5-7--7-7--7-5---3---2--|--L-----|
------------3--3-3--3--------|---------------------------|----5---|


  Q.     E  S E  S E  S S    S S E  S E  S E  S E  S E     S E  S
--------------------------|-----------------------------|---------|
--------------------------|-----------------------------|---------|
--5----------------5--5-5-|--L-5-7--7-7--7-3--3-3--3-5--|--5-5--5-|
---------3--3-3--3--------|-----------------------------|---------|


  E  S E  S E  S E  S E  S S    S S E  S E  S E.  E.  E     S E.
-----------------------------|---------------------------|--------|
-----------------------------|---------------------------|--------|
--5--5-5--5-----------5--5-5-|--L-5-7--7-7--7-5---3---2--|--L-----|
------------3--3-3--3--------|---------------------------|----5---|


  W                   H.           E.  S    H
-------------------|---------------------|-----------|
-------------------|---------------------|-----------|
--5----------------|--L------------L---5-|-----------|
-------------------|---------------------|-----------|


  W                   W                   W
-------------------|-------------------|-------------------|
-------------------|-------------------|-------------------|
-------------------|-------------------|-------------------|
-------------------|-------------------|-------------------|


  W                   W                   W
-------------------|-------------------|-------------------|
-------------------|-------------------|-------------------|
-------------------|-------------------|-------------------|
-------------------|-------------------|-------------------|


  W                   W                   W
-------------------|-------------------|-------------------|
-------------------|-------------------|-------------------|
-------------------|-------------------|-------------------|
-------------------|-------------------|-------------------|


  W                   W                   W
-------------------|-------------------|-------------------|
-------------------|-------------------|-------------------|
-------------------|-------------------|-------------------|
-------------------|-------------------|-------------------|


  W                   W                   E  S E  S E  S E  S E  S S
-------------------|-------------------|-----------------------------|
-------------------|-------------------|-----------------------------|
-------------------|-------------------|----------------------0--0-0-|
-------------------|-------------------|--0--0-0--0-0--0-0--0--------|


  S S E  S E  S E  S E  S E     S E  S E  S E  S E  S E  S
-----------------------------|-----------------------------|
-----------------------------|-----------------------------|
--L-0-----------0--0-0--0----|-------------------2--2-2--2-|
------0--0-0--0-----------0--|--0-0--0-2--2-2--2-----------|


  E  S E  S E  S E  S E  S S    S S E  S E  S E  S E  S E
-----------------------------|-----------------------------|
-----------------------------|-----------------------------|
----------------------0--0-0-|--L-0-----------0--0-0--0----|
--0--0-0--0-0--0-0--0--------|------0--0-0--0-----------0--|


  S E  S E  S E  S E  S E  S    W                   W
-----------------------------|-------------------|-------------------|
-----------------------------|-------------------|-------------------|
-------------------2--2-2--2-|-------------------|-------------------|
--0-0--0-2--2-2--2-----------|-------------------|-------------------|


  W                   W                   W
-------------------|-------------------|-------------------|
-------------------|-------------------|-------------------|
-------------------|-------------------|-------------------|
-------------------|-------------------|-------------------|


  W                   W                   W
-------------------|-------------------|-------------------|
-------------------|-------------------|-------------------|
-------------------|-------------------|-------------------|
-------------------|-------------------|-------------------|


  W                   W                   W
-------------------|-------------------|-------------------|
-------------------|-------------------|-------------------|
-------------------|-------------------|-------------------|
-------------------|-------------------|-------------------|


  W                   W                   E  S E  S E  S E  S E  S S
-------------------|-------------------|-----------------------------|
-------------------|-------------------|-----------------------------|
-------------------|-------------------|----------------------0--0-0-|
-------------------|-------------------|--0--0-0--0-0--0-0--0--------|


  S S E  S E  S E  S E  S E     S E  S E  S E  S E  S E  S
-----------------------------|-----------------------------|
-----------------------------|-----------------------------|
--L-0-----------0--0-0--0----|-------------------2--2-2--2-|
------0--0-0--0-----------0--|--0-0--0-2--2-2--2-----------|


  E  S E  S E  S E  S E  S S    S S E  S E  S E  S E  S E
-----------------------------|-----------------------------|
-----------------------------|-----------------------------|
----------------------0--0-0-|--L-0-----------0--0-0--0----|
--0--0-0--0-0--0-0--0--------|------0--0-0--0-----------0--|


  S E  S E  S E  S E  S E  S    S S S S S S S S S S S S
-----------------------------|--------------------------|
-----------------------------|--------------------------|
-------------------2--2-2--2-|--2-2-2-2-2-2-2-2-2-2-2-2-|
--0-0--0-2--2-2--2-----------|--------------------------|


  E  S E  S E  S E  S E  S S    S S E  S E  S E  S E  S E
-----------------------------|-----------------------------|
-----------------------------|-----------------------------|
----------------------1--1-1-|--L-1-----------1--1-1--1----|
--1--1-1--1-1--1-1--1--------|------1--1-1--1-----------1--|


  S E  S E  S E  S E  S E  S    E  S E  S E  S E  S E  S S
-----------------------------|-----------------------------|
-----------------------------|-----------------------------|
-------------------3--3-3--3-|----------------------1--1-1-|
--1-1--1-3--3-3--3-----------|--1--1-1--1-1--1-1--1--------|


  S S E  S E  S E  S E  S E     S E  S E  S E  S E  S E  S
-----------------------------|-----------------------------|
-----------------------------|-----------------------------|
--L-1-----------1--1-1--1----|-------------------3--3-3--3-|
------1--1-1--1-----------1--|--1-1--1-3--3-3--3-----------|


  E  S E  S E  S E  S E  S S    S S E  S E  S E  S E  S E
-----------------------------|-----------------------------|
-----------------------------|-----------------------------|
--5--5-5--5-----------1--1-1-|--L-1---------------------3--|
------------1--1-1--1--------|------1--1-1--1-3--3-3--3----|


  S E  S E  S E  S Q.        W                   W
--------------------------|-------------------|-------------------|
--------------------------|-------------------|-------------------|
--3-3--3-----------3------|--L----------------|--L----------------|
---------3--3-3--3--------|-------------------|-------------------|


  W                   W                   W
-------------------|-------------------|-------------------|
-------------------|-------------------|-------------------|
-------------------|-------------------|-------------------|
-------------------|-------------------|-------------------|


                      W                   E  S E  S E  S E  S E  S S
-------------------|-------------------|-----------------------------|
-------------------|-------------------|-----------------------------|
-------------------|-------------------|----------------------1--1-1-|
-------------------|-------------------|--1--1-1--1-1--1-1--1--------|


  S S E  S E  S E  S E  S E     S E  S E  S E  S E  S E  S
-----------------------------|-----------------------------|
-----------------------------|-----------------------------|
--L-1-----------1--1-1--1----|-------------------3--3-3--3-|
------1--1-1--1-----------1--|--1-1--1-3--3-3--3-----------|


  E  S E  S E  S E  S E  S S    S S E  S E  S E  S E  S E
-----------------------------|-----------------------------|
-----------------------------|-----------------------------|
----------------------1--1-1-|--L-1-----------1--1-1--1----|
--1--1-1--1-1--1-1--1--------|------1--1-1--1-----------1--|


  S E  S S S S S S S S S S S S S    S S S S S S S S S S S S S S S S
---------------------------------|----------------------------------|
---------------------------------|----------------------------------|
---------------------------------|--------------------------5-5-5-5-|
--1-1--1-3-3-3-3-3-3-3-3-3-3-3-3-|--5-5-5-5-5-5-5-5-5-5-5-5---------|


  S S S S S S S S    Q.     E  S E  S E  S S
------------------|--------------------------|
------------------|--------------------------|
--5-5-5-5-5-5-5-5-|--5----------------5--5-5-|
------------------|---------3--3-3--3--------|


  S S E  S E  S E  S E  S E     S E  S    E  S E  S E  S E  S E  S S
-----------------------------|---------|-----------------------------|
-----------------------------|---------|-----------------------------|
--L-5-7--7-7--7-3--3-3--3-5--|--5-5--5-|--5--5-5--5-----------5--5-5-|
-----------------------------|---------|------------3--3-3--3--------|


  S S E  S E  S E.  E.  E     S E.     Q.     E  S E  S E  S S
---------------------------|--------|--------------------------|
---------------------------|--------|--------------------------|
--L-5-7--7-7--7-5---3---2--|--L-----|--5----------------5--5-5-|
---------------------------|----5---|---------3--3-3--3--------|


  S S E  S E  S E  S E  S E     S E  S    E  S E  S E  S E  S E  S S
-----------------------------|---------|-----------------------------|
-----------------------------|---------|-----------------------------|
--L-5-7--7-7--7-3--3-3--3-5--|--5-5--5-|--5--5-5--5-----------5--5-5-|
-----------------------------|---------|------------3--3-3--3--------|


  S S E  S E  S E.  E.  E     S E.     E  Q    Q.     Q
---------------------------|--------|----------------------|
---------------------------|--------|----------------------|
--L-5-7--7-7--7-5---3---2--|--L-----|----------5------7----|
---------------------------|----5---|--3-------------------|


  E  E.  E.  E.  E.  E     Q    Q    E  Q.        E.  E.  E.  E.
------------------------|----------------------|------------------|
------------------------|----------------------|------------------|
-----5---3---2----------|-------5-------7------|--5---3---2-------|
-----------------2---3--|----------------------|--------------2---|


  E  S E  S E  S E  S E  S S    S S E.  E.  E.  E.  E
-----------------------------|-------------------------|
-----------------------------|-------------------------|
------------5--5-5--5-7--7-7-|--L-7-5---3---2----------|
--3--3-3--3------------------|------------------2---3--|


  S E  S E  S E  S E  S E  S    E.  E.  E.  E.
-----------------------------|------------------|
-----------------------------|------------------|
---------5--5-5--5-7--7-7--7-|--5---3---2-------|
--3-3--3---------------------|--------------2---|


  E  S S E  E  S S E  E  S S    E  S S S S S S S S S S S S S S
-----------------------------|---------------------------------|
-----------------------------|---------------------------------|
--5--5-5-5--5--5-5-5--5--5-5-|--5--5-5-5-5-5-5-5-5-5-5-5-5-5-5-|
-----------------------------|---------------------------------|


  S S S S    Q.     E  S E  S E  S S    S S E  S E  S E  S E  S E
----------|--------------------------|-----------------------------|
----------|--------------------------|-----------------------------|
--5-5-5-5-|--5----------------5--5-5-|--L-5-7--7-7--7-3--3-3--3-5--|
----------|---------3--3-3--3--------|-----------------------------|


  S E  S    E  S E  S E  S E  S E  S S    S S E  S E  S E.  E.  E
---------|-----------------------------|---------------------------|
---------|-----------------------------|---------------------------|
--5-5--5-|--5--5-5--5-----------5--5-5-|--L-5-7--7-7--7-5---3---2--|
---------|------------3--3-3--3--------|---------------------------|


  S E.     Q.     E  S E  S E  S S    S S E  S E  S E  S E  S E
--------|--------------------------|-----------------------------|
--------|--------------------------|-----------------------------|
--L-----|--5----------------5--5-5-|--L-5-7--7-7--7-3--3-3--3-5--|
----5---|---------3--3-3--3--------|-----------------------------|


  S E  S    E  S E  S E  S E  S E  S S    S S E  S E  S E.  E.  E
---------|-----------------------------|---------------------------|
---------|-----------------------------|---------------------------|
--5-5--5-|--5--5-5--5-----------5--5-5-|--L-5-7--7-7--7-5---3---2--|
---------|------------3--3-3--3--------|---------------------------|


  S E.     Q.     E  S E  S E  S S    S S E  S E  S E  S E  S E
--------|--------------------------|-----------------------------|
--------|--------------------------|-----------------------------|
--L-----|--5----------------5--5-5-|--L-5-7--7-7--7-3--3-3--3-5--|
----5---|---------3--3-3--3--------|-----------------------------|


  S E  S    E  S E  S E  S E  S E  S S    S S E  S E  S E.  E.  E
---------|-----------------------------|---------------------------|
---------|-----------------------------|---------------------------|
--5-5--5-|--5--5-5--5-----------5--5-5-|--L-5-7--7-7--7-5---3---2--|
---------|------------3--3-3--3--------|---------------------------|


  S E.     Q.     E  S E  S E  S S    S S E  S E  S E  S E  S E
--------|--------------------------|-----------------------------|
--------|--------------------------|-----------------------------|
--L-----|--5----------------5--5-5-|--L-5-7--7-7--7-3--3-3--3-5--|
----5---|---------3--3-3--3--------|-----------------------------|


  S E  S    E  S E  S E  S E  S E  S S    S S E  S E  S E.  E.  E
---------|-----------------------------|---------------------------|
---------|-----------------------------|---------------------------|
--5-5--5-|--5--5-5--5-----------5--5-5-|--L-5-7--7-7--7-5---3---2--|
---------|------------3--3-3--3--------|---------------------------|


  S E.
--------|------||
--------|------||
--L-----|------||
----5---|------||


Duration Legend
---------------
W - whole
H - half
Q - quarter
E - 8th
S - 16th
T - 32nd
X - 64th
. - note dotted
|-n-|  - n-tuplets


Tablature Legend
----------------
L - tied note
x - dead note
g - grace note
(n) - ghost note
> - accentuded note
NH - natural harmonic
AH - artificial harmonic
TH - tapped harmonic
SH - semi harmonic
PH - pitch harmonic
h - hammer on
p - pull off
b - bend
br - bendRelease
pb - preBend
pbr - preBendRelease
brb - bendReleaseBend
n/ - tremolo bar dip
n - tremolo bar dive
-/n - tremolo bar Release up
/n - tremolo bar inverted dip
/n - tremolo bar return
-n - tremolo bar Release down
S - shift slide
s - legato slide
/ -  slide into from below or out of upwards
 -  slide into from above or out of downwards
~ - vibrato
W - wide vibrato
tr - trill
TP - tremolo picking
T - tapping
S - slap
P - pop
< - fade in
^ - brush up
v - brush down

            
            
Suggest correction
Creating personal tab
Creating personal tab
You can edit any tab online and save it as your Personal.

You can edit, replace or remove any tab part or add personal notes – all changes will be seen only by you.

Personal tabs can be accessed anytime from any device, even offline.
Learn more »
Give kudos to tab author, rate the tab!
1 2 3 4 5
comments
print report bad tab
guest
Wanna post a correction for this tab? Suggest correction