Oops, an error
Loading. Please wait.

Resacosix In Hispania Tab

version 2
version 2

Whole song

34 views 1 this week
no commentswrite comment
1 2 3 4 5
3 more votes to show rating
add to favorites
×
Save as Personal and add changes to this tab that will be seen only by you. Learn more ›
×
You can save this tab as Personal to edit and correct it or add notes. All changes will be seen only by you. Learn more »
save as personal
new!
launch autoscroll
font size
0
reset
how to read this tab
guitar tuner
Autoscroll
slow
fast
+/-
esc
set tempo
stop
Bien esta cancion NO SE LLAMA "Resacosix en Hispania" se llama
"resacosix en la barra" no se por que la pusieron con este
nombre. Ojala y puedan correjir este error los que administran lacuerda,
por que yo la mande con el nombre correcto no con el que le
pusieron ok eso si me molesto demaciado ps este fue un gran trabajo
muchas gracias.

(Resacosix en Hispania parte II)
Adaptación de ?39? de Queen: Brian May.
Letra en castellano: Txus

Este es un muy buen cover de una gran cancion, espero les sea util.
Venga....

"SUBIR MEDIO TONO O CAPO EN EL 1º TRASTE"

si esta cancion la tocas con 1 guitarra suena perron si
la tocas convinando el rasgueo con los bajos mas o menos asi...

intro:

(R)= rasgueo (arriba abajo)

      G              D      Em        C       Em         D      Em
     (R)            (R)              (R)                (R)    (R)
E-|-3-3----x---x-|------|---------|---0--|---0-------|---x--|---0--|
A-|---2--2-2-3-3-|------|---------|-3-3--|---2-------|---x--|---2--|
D-|---0----0---0-|-0----|-2---4---|---2--|---2-------|---0--|-2-2--|
G-|-- 0----0---0-|---2--|---0---0-|---0--|---0-2-1-0-|-2-2--|---0--|
B-|---2----2---2-|---3--|---0-----|---1--|-0-0-------|---3--|---0--|
e-|---2----2---2-|---2--|---0-----|---0--|---0-------|---2--|---0--|

      G              D      Em        C      Em      D        G    [ch]B[/ch] no...
     (R)            (R)              (R)    (R)              (R)
E-|-3-3----x---x-|------|---------|---0--|---0---|---x----|-3-3--|
A-|---2--2-2-3-3-|------|---------|-3-3--|---2---|---x----|---2--|
D-|---0----0---0-|-0----|-2---4---|---2--|---2---|---0---4|---0--|
G-|-- 0----0---0-|---2--|---0---0-|---0--|---0---|-2-2-0--|-0-0--|
B-|---2----2---2-|---3--|---0-----|---1--|-2-0---|---3----|---2--|
e-|---2----2---2-|---2--|---0-----|---0--|---0---|---2----|---2--|


G          D
 Si no encuentras tu lugar
        Em
si has perdido en ti la fe
       C    G    D
y no puedes olvidar
        Em
a ese amor que dibujo
 C
sobre el lienzo de tu piel
 D                      G
una mueca hecha de un adiós

        D
Si un amigo te vendió
     B7
por monedas y un tacón
      Em            Am
y la noche es tu rival
 G
contra el mal de soledad
   D
bébete hoy la ciudad
C       Em  C      D   C   G-D
Y ahogaras la amargura al brindar

        G
Cuando salga el sol
 C            G
seguiremos en el bar
                   D
seguiremos sin dormir
   G     F#m/D   Em
mataremos en la barra
  D         C   Em     Am
nuestras penas con champán
          Em     D          G
¡vente! ¡vámonos a emborrachar!


 D#m      Cm      A     C F#m-C    Am      E    A# D#m*r-A#-F*r-C
AAAAA...AAAAA...AAAAA....AAAAA...AAAAA...AAAAA


G         D
 Si el olvido dibujó
       Em
con carmín en el colchón
       C          G     D
el perfil de un viejo amor
            Em
pinta un corazón
    C
con aliento hecho de alcohol
      D            G
y su imagen se borrará

        D
Es más sano que llorar
     B7
medicarte en algún bar
 Em             Am
con recetas de pasión
   G
no estés solo, ¡únete!
  D
y antes de que cuentes diez
C     Em  C      D   C   G-D
ahogarás la amargura al brindar

        G
Cuando salga el sol
 C            G
seguiremos en el bar
                   D
seguiremos sin dormir
   G     F#m/D   Em
mataremos en la barra
  D         C   Em     Am
nuestras penas con champán
          Em     D          G
¡vente! ¡vámonos a emborrachar!

        G
Cuando salga el sol
 C            G
seguiremos en el bar
                   D
seguiremos sin dormir
   G     F#m/D   Em
mataremos en la barra
  D         C   Em     Am
nuestras penas con champán
          Em     D          G
¡vente! ¡vámonos a emborrachar!


     G   F#m/D   Em
Resacosix en la barra
 D   C    Em    Am
resacosix en el bar
     Em        D          G
resacosix en cualquier lugar

G C G   D  G-F#m/D-Em-D-C-Em-Am   Em D G

      G         D      Em        C        G       D        G
               (R)              (R)
E-|-3-3-----|------|---------|---0--|---3---3-|---x----|---3--|
A-|---2-2-3-|------|---------|-3-3--|---2---2-|---x----|---2--|
D-|---0-----|-0----|-2---4---|---2--|---0---0-|---0--4-|---2--|
G-|-- 0-----|---2--|---0---0-|---0--|-0-0-0-0-|-2-2-0--|-0-0--|
B-|---2-----|---3--|---0-----|---1--|---2---2-|---3----|---2--|
e-|---2-----|---2--|---0-----|---0--|---2---2-|---2----|---2--|

Bien y ahora los acordes raros jeje :) (pero ni tan raros jaja)
K me imagino que conocen pero si no hay estan:

D#m*r = E 6   F*r = 8    F#m/D = 2
        A 6         8            0
        D 8         10           0
        G 8         10           2
        B 6         8            3
        E 6         8            3

Ps bien amigos eso es todo,... asi es como la toco yo, espero y
les salga chido... Cualquier correccion, aclaracion o declaracion
de amor hay esta mi correo jeje. un abraso y un saludo a todos
hasta pronto bye.
Suggest correction
Give kudos to tab author, rate the tab!
1 2 3 4 5
comments
print report bad tab
guest
Wanna post a correction for this tab? Suggest correction