Oops, an error
Loading. Please wait.

Santa Campaña Tab

version 2
version 2

Whole song

25 views 1 this week
no commentswrite comment
1 2 3 4 5
3 more votes to show rating
add to favorites
launch autoscroll
font size
0
reset
how to read this tab
guitar tuner
×
Best way to learn
"Santa Campaña"
Autoscroll
slow
fast
+/-
esc
set tempo
stop
Bueno este es mi cuarto tab. de
Mago de Oz espero que les guste mi mail
es edgar_mc_1@ y no se olviden de calificarla  ;-)

Intro:

Gm
D--7------------------------------------------5/7---
A--7------------------------------------------5/7---
E--5--5-7-8-7-5---5-7-8-7-5--5--5-7-8-7-5-----3/5---

G-------------------------------------------------5--------
D-------------------------------------------------5--5---7      x2
A-------------------------------------------------3--5---7
E--5--5-7-8-7-5---5-7-8-7-5--5--5-7-8-7-5------------3---5

La segunda vez entra el violín y va algo así:

E-5--5-7-8-7-5---5-7-8-7-5--5--5-7-8-7-5--10-12-13-12-10--10-12-13-12-10
B-------------------------------------------------------------------------
G-------------------------------------------------------------------------

E-10---10-12-13-12-10
B-------------------------
G-------------------------

Verso
 A5
      Cuando al atardecer
                            G5 A5
Los últimos rayos del sol
               G5        G5 A5 A5
Jugetaban a esconder

Las luces y el color
      A5
Del bosque del perder
 F5      G5       A5
Algo se empieza a mover
  F5           G5        A5
       Algo a lo lejos se ve       <- aquí va esto A-5-7-9-7-5-7

Todo este verso es igual al intro:

La lluvia hacía del mar un rumor
Y el dios de las sombras se instalaba
La reina de la noche acudió
Su majestad La Luna, bien acompañada

Y una procesión de almas en pena (aquí donde dice
penaaaa cuando termina de el aa sigue esto C5-D5)
F5        G5        A5
      Portadores de luz
F5          G5      A5
      Rosas en un ataúd

Bueno aquí empieza el ohhhhh pues los cambios son C5 G5 A5 F5 G5 x2

Y prácticamente es igual toda la canción
Nomás aquí les dejo el violín del minuto 3:17

E-5-5-5----5-7-8--3-3-3----3-5-6
B--6-6-6--6--------5-5-5--5-----
G-------------------------------

E-5-5-5----5-7-8--3-8-6-5-3--------
B--6-6-6--6----------------3-5-6-8-
G----------------------------------
Suggest correction
Give kudos to tab author, rate the tab!
1 2 3 4 5
comments
print report bad tab
guest
You may want to rate the tab now too:
select rating
Wanna post a correction for this tab? Suggest correction