Oops, an error
Loading. Please wait.

Se Acabó Tab

version 1
version 1

Whole song

40 views 1 this week
no commentswrite comment
1 2 3 4 5
3 more votes to show rating
add to favorites
launch autoscroll
font size
0
reset
how to read this tab
guitar tuner
×
Best way to learn
"Se Acabó"
Autoscroll
slow
fast
+/-
esc
set tempo
stop
Arriba ¡Cabroneeeeeeees! ¡eeeee!

Violin 0:00

E-3-1-0-------3-1-0--------------------------
B-------0-1-3-------0-1-3-1-0------0-----0-1-
G-----------------------------2--2---0-2-----
D--------------------------------------------   x2
A--------------------------------------------
E--------------------------------------------

Guitarra 0:38

E-3---------
B-3-3-0-1-3-
G-----------
D-----------
A-----------
E-----------

Violin 0:39

E-------12-14-15------------15----------10----
B-13-15---------------13-12----12-12-10-------
G---------------------------------------------
D---------------------------------------------   x2
A---------------------------------------------
E---------------------------------------------


Guitarra 0:52

E--0-2---0-2---0-2--------
B------3-----3-----3------
G-------------------------
D-------------------------
A-------------------------
E-------------------------


Violin 0:55

E--------------------------------
B-8-7-----8-------------9-7------
G-----9-7---7------7--7----------
D-------------9-10---------------   x4
A--------------------------------
E--------------------------------

Violin 1:12

E-8-7-5-3-5-7-5h7h8---
A---------------------
D---------------------
G---------------------
B---------------------
E---------------------

Guitarra 1:20

E---------
B-0-1-3---
G-0-0-0---
D---------
A---------
E---------

SE REPITE TODO OTRA VEZ

Final 2:42

E-----------0---0-2-3-
B-0-1-3-1-3---3-------
G---------------------
D---------------------
A---------------------
E---------------------

Magovitoroz
Suggest correction
Give kudos to tab author, rate the tab!
1 2 3 4 5
comments
print report bad tab
guest
You may want to rate the tab now too:
select rating
Wanna post a correction for this tab? Suggest correction