Oops, an error
Loading. Please wait.

Se Acabó Tab

version 2
version 2

Whole song

34 views 1 this week
no commentswrite comment
1 2 3 4 5
3 more votes to show rating
add to favorites
launch autoscroll
font size
0
reset
how to read this tab
guitar tuner
×
Best way to learn
"Se Acabó"
Autoscroll
slow
fast
+/-
esc
set tempo
stop
K TRANZA RAZA!!!!!!!!
Aki'sta una d las rolas instrumentales mas chidas del Mago.
Esta version es la mas parecida a la original k van a
encontrar pero esta cabrona de tocar. Practicando
se hace mas facil. Las notas arriba de los tabs son para k
hagan esa posicion y nadamas arpejeen.
Nada mas puse los tabs para guitarra, no para violin,
pero suena como si fueran ambos.


[0:00]
  Csus2      G7         C         Em7 C Cadd9
E-3-----3----1-----1----0-----0------------]
B---1----1-----0----0-----1----1---0--1--3-]
G-----0---0------0---0------0---0----------]   X 2
D------------------------------------------]
A-3---------------------3----------2--3--3-]
E------------3-----------------------------]

[0:09]
 C           Em7       Asus2            Am      Em7     C
--------------------------------------------------------0--
-0/1-----1---0-----0----------------0---------1-0-----0-1--
-----0----0----0----0--2-----2----2---0-2---2-------0---0--
-------2---2-----0---0---2----2-----------2-------0-----2--
-3-----------2---------0---0---0--0-2---0-------2-------3--
--------------------------------------3-----------------3--

 Em7 C Cadd9
-------------
--0--1--3----
-------------
-------------
--2--3--3----
-------------

[0:19]
  Csus2      G7         C         Em7 C Cadd9
[--3-----3----1-----1----0-----0------------]
[----1----1-----0----0-----1----1---0--1--3-]
[------0---0------0---0------0---0----------]   X 2
[-------------------------------------------]
[--3---------------------3----------2--3--3-]
[-------------3-----------------------------]

[0:29]
 C           Em7       Asus2            Am      Em7     C
--------------------------------------------------------0--
-0/1-----1---0-----0----------------0---------1-0-----0-1--
-----0----0----0--0-0--2-----2----2---0-2---2-------0---0--
-------2---2-----0---0---2----2-----------2-------0-----2--
-3-----------2---------0---0---0--0-2---0-------2-------3--
--------------------------------------3-----------------3--


[0:38]
            Am   D Em  F# G            Am   D
[-------------------0--2--3--------------------3/2-0/2-----]
[-1/3-1-----1----3-----------1/3-1-----1----3----------3---]
[-------2-4--2-2-------------------2-4--2-2--------------2-] X 2
[-------------2--0--2--4-----------------2--0--0---0-------]
[-----------0--------------------------0-------------------]
[-------------------------3--------------------------------]

[0:52]
 D
-0/2---0/2---0/2---0/2----
----3-----3-----3-----3---
-----2-----2-----2-----2--
-0-----0-----0-----0------
--------------------------
--------------------------

[0:55]
                    C   D
[-3-2-0/2/0--3--------0-2----]
[----------2--3--0-1-3---3-3-]
[--------------2----0-----2--]  X 3
[-0-0-0-----------------0----]
[------------------3---------]
[------------3---------------]

[1:06]
                  C    D
-3-2-0/2/0--3--------0-0/2----
----------2--3--0-1-3-----3---
--------------2----0-------2--
-0-0-0-----------------0------
------------------3-----------
------------3-----------------


D
-0/2---0/2---0/2---
----3-----3-----3--
-----2-----2-----2-
-0-----0-----0-----
-------------------
-------------------

[1:12]
           Em7  Asus2      Am   Em7  C
-------------------------------------0-
-----------0--0--------0------1-0--0-1-
-5-5/4-2-5--0---2--2-2---0-2-2----0--0-
-------------0---2----------2----0---2-
-----------2----0-0--0-2---0----2----3-
-------------------------3-----------3-

Se repite todo una vez, y al final va:

[2:42]
-----------0---0-2-3-
-0-1-3-1-3---3-----0-
-------------------0-
-----------2---2-4-0-
-2-3-5-3-5---5-----2-
-------------------3-
Suggest correction
Give kudos to tab author, rate the tab!
1 2 3 4 5
comments
print report bad tab
guest
You may want to rate the tab now too:
select rating
Wanna post a correction for this tab? Suggest correction