Oops, an error
Loading. Please wait.

Se Acabó Tab

version 3
version 3

Whole song

25 views 1 this week
no commentswrite comment
1 2 3 4 5
3 more votes to show rating
add to favorites
launch autoscroll
font size
0
reset
how to read this tab
guitar tuner
×
Best way to learn
"Se Acabó"
Autoscroll
slow
fast
+/-
esc
set tempo
stop
mohamed


E||----------------|--3--------1--------|--0-------------------|
B||----------------|--------------------|-----------0---1---3--|
G||----------------|--------------------|----------------------|
D||----------------|--------------------|----------------------|
A||----------------|--------------------|----------------------|
E||----------------|--------------------|----------------------|

--3--------1--------|--0-------------------|--------------------|
--------------------|-----------0---1---3--|--1--------0--------|
--------------------|----------------------|--------------------|
--------------------|----------------------|--------------------|
--------------------|----------------------|--------------------|
--------------------|----------------------|--------------------|

----------------------|--------------------|--------------------|
---------------0------|-----------0--------|--1-----------------|
--2--------L-------0--|--2-----------------|--------------------|
----------------------|--------------------|--------------------|
----------------------|--------------------|--------------------|
----------------------|--------------------|--------------------|

--3--------1--------|--0-------------------|--3--------1--------|
--------------------|-----------0---1---3--|--------------------|
--------------------|----------------------|--------------------|
--------------------|----------------------|--------------------|
--------------------|----------------------|--------------------|
--------------------|----------------------|--------------------|

--0-------------------|-----------------|---------------------|
-----------0---1---3--|--1--------0-----|--------------0------|
----------------------|-----------------|--2---------------0--|
----------------------|-----------------|---------------------|
----------------------|-----------------|---------------------|
----------------------|-----------------|---------------------|

--------------------|--------------------|--8----10----12--14--|
-----------0--------|--1-----------------|---------------------|
--2-----------------|--------------------|---------------------|
--------------------|--------------------|---------------------|
--------------------|--------------------|---------------------|
--------------------|--------------------|---------------------|

--15-----------------|--8--------7----15--7--|--7--5--10------|
---------------------|-----------------------|----------------|
---------------------|-----------------------|----------------|
---------------------|-----------------------|----------------|
---------------------|-----------------------|----------------|
---------------------|-----------------------|----------------|

--8--------10----12--14--|--15----------|--8--------7----15--7--|
-------------------------|--------------|-----------------------|
-------------------------|--------------|-----------------------|
-------------------------|--------------|-----------------------|
-------------------------|--------------|-----------------------|
-------------------------|--------------|-----------------------|

--7--5--10------------|-------------------|--3--2--0-2----|
----------------------|-------------------|------------3--|
----------------------|-------------------|---------------|
----------------------|-------------------|---------------|
----------------------|-------------------|---------------|
----------------------|-------------------|---------------|

-3-------------------0-|-2--3--2--0-2---|--3-----------------0--|
----3-----0--1----3----|--------------3-|-----3-----0--1--3-----|
-------2---------------|----------------|--------2--------------|
-----------------------|----------------|-----------------------|
-----------------------|----------------|-----------------------|
-----------------------|----------------|-----------------------|

--2---3--2--0-2----|--3-------------------0--|--2--3--2--0-2----|
----------------3--|-----3-----0--1----3-----|---------------3--|
-------------------|--------2----------------|------------------|
-------------------|-------------------------|------------------|
-------------------|-------------------------|------------------|
-------------------|-------------------------|------------------|

--3-------------------0--|--2~----------------|
-----3-----0--1----3-----|--------------------|
--------2----------------|--------------------|
-------------------------|--------------------|
-------------------------|--------------------|
-------------------------|--------------------|

--8--------7--------|--5--------3--------|--5--------7------5-7-|
--------------------|--------------------|----------------------|
--------------------|--------------------|----------------------|
--------------------|--------------------|----------------------|
--------------------|--------------------|----------------------|
--------------------|--------------------|----------------------|

--8-----------------|--3--------1--------|--0-------------------|
--------------------|--------------------|-----------0---1---3--|
--------------------|--------------------|----------------------|
--------------------|--------------------|----------------------|
--------------------|--------------------|----------------------|
--------------------|--------------------|----------------------|

--3--------1--------|--0-------------------|--------------------|
--------------------|-----------0---1---3--|--1--------0--------|
--------------------|----------------------|--------------------|
--------------------|----------------------|--------------------|
--------------------|----------------------|--------------------|
--------------------|----------------------|--------------------|

----------------------|--------------------|--------------------|
---------------0------|-----------0--------|--1-----------------|
--2--------L-------0--|--2-----------------|--------------------|
----------------------|--------------------|--------------------|
----------------------|--------------------|--------------------|
----------------------|--------------------|--------------------|

--3--------1--------|--0-------------------|--3--------1--------|
--------------------|-----------0---1---3--|--------------------|
--------------------|----------------------|--------------------|
--------------------|----------------------|--------------------|
--------------------|----------------------|--------------------|
--------------------|----------------------|--------------------|

--0-------------------|-----------------|----------------------|
-----------0---1---3--|--1-----0--------|---------------0------|
----------------------|-----------------|--2--------L-------0--|
----------------------|-----------------|----------------------|
----------------------|-----------------|----------------------|
----------------------|-----------------|----------------------|

--------------------|----------------|--8--------10----12--14--|
-----------0--------|--1-------------|-------------------------|
--2-----------------|----------------|-------------------------|
--------------------|----------------|-------------------------|
--------------------|--------------------|-------------------------|
--------------------|--------------------|-------------------------|

--15-----------|--8--------7----15--7--|--7--5--10-------------|
---------------|-----------------------|-----------------------|
---------------|-----------------------|-----------------------|
---------------|-----------------------|-----------------------|
---------------|-----------------------|-----------------------|
---------------|-----------------------|-----------------------|

--8--------10----12--14--|--15----------|--8--------7----15--7--|
-------------------------|--------------|-----------------------|
-------------------------|--------------|-----------------------|
-------------------------|--------------|-----------------------|
-------------------------|--------------|-----------------------|
-------------------------|--------------|-----------------------|

--7--5--10------------|-------------------|--3--2--0-2----|
----------------------|-------------------|------------3--|
----------------------|-------------------|---------------|
----------------------|-------------------|---------------|
----------------------|-------------------|---------------|
----------------------|-------------------|---------------|

-3-----------------0--|-2--3--2--0-2----|--3-----------------0--|
----3-----0--1--3-----|--------------3--|-----3-----0--1--3-----|
-------2--------------|-----------------|--------2--------------|
----------------------|-----------------|-----------------------|
----------------------|-----------------|-----------------------|
----------------------|-----------------|-----------------------|

--2-----3--2--0-2----|--3-----------------0--|--2--3--2--0-2----|
------------------3--|-----3-----0--1--3-----|---------------3--|
---------------------|--------2--------------|------------------|
---------------------|-----------------------|------------------|
---------------------|-----------------------|------------------|
---------------------|-----------------------|------------------|

--3-------------------0--|--2~----------------|
-----3-----0--1----3-----|--------------------|
--------2----------------|--------------------|
-------------------------|--------------------|
-------------------------|--------------------|
-------------------------|--------------------|

--8--------7--------|--5--------3--------|--5------7------5-7-|
--------------------|--------------------|--------------------|
--------------------|--------------------|--------------------|
--------------------|--------------------|--------------------|
--------------------|--------------------|--------------------|
--------------------|--------------------|--------------------|

--8-----|--7----8----10----8----|--10----12----10----12----|
--------|-----------------------|--------------------------|
--------|-----------------------|--------------------------|
--------|-----------------------|--------------------------|
--------|-----------------------|--------------------------|
--------|-----------------------|--------------------------|

--14----15------------||
----------------------||
----------------------||
----------------------||
----------------------||
----------------------||

ESTO ES TODO LO DEL VIOLIN
ATT.D.F.C.J
Suggest correction
Give kudos to tab author, rate the tab!
1 2 3 4 5
comments
print report bad tab
guest
You may want to rate the tab now too:
select rating
Wanna post a correction for this tab? Suggest correction