Oops, an error
Loading. Please wait.

Si Molesto Me Quedo Tab

version 1
version 1

Whole song

134 views 3 this week
no commentswrite comment
1 2 3 4 5
3 more votes to show rating
add to favorites
launch autoscroll
font size
0
reset
how to read this tab
guitar tuner
×
Best way to learn
"Si Molesto Me Quedo"
Autoscroll
slow
fast
+/-
esc
set tempo
stop
Intro:
-------------------------------------------------
--------------------------------------15-----15--
--12--14--16--------16-16-16-16-17---------------
-------------------------------------------------
-------------------------------------------------
-------------------------------------------------

---------------------------------------------
---------------------------------------------
-14/16/14----14---14-14-14-14-16---17--16----
---------------------------------------------
---------------------------------------------
---------------------------------------------

------------------------------------------------
--------------------15----15--------------------
-16-16-16-16-17-------------------14/16/14--14--
------------------------------------------------
------------------------------------------------
------------------------------------------------

-------------------------------
-------------------------------
-14-14-14-14---12---11--9------
-------------------------------
-------------------------------
-------------------------------

(0:16)
------------------------------------------
------------------------------------------
------------------------------------------
--5--4-----2-0-2-------5--4-----2-0-2-----
------------------------------------------
------------------------------------------

------------------------------------------
------------------------------------------
-4--2-----------------4--2----------------
----------5-4-5----------------5-4-5------
------------------------------------------
------------------------------------------

(0:22)
------------------------------------------------
------------------------------------------------
---7--7-------7--7------------------------------
---7--7-------7--7-------------------5---7---9--
---5--5-------5--5-----5---7---9----------------
------------------------------------------------


-----------------------------------
-----------------------------------
----------------------------------- (se repite varias veces
--5-4---2-0-2------5-4----2-0-2----  mientras canta)
-----------------------------------
-----------------------------------
Suelo imaginarme
cuando lo quiero dejar
que hay un mundo escondido
donde van

---------------
---------------
---7-7---7-7---
---7-7---7-7---
---5-5---5-5---
---------------
a parar?


(0:40)

G5            D5
Cada lágrima que lloré por ti
E5                    C5
y todo el veneno que inoculaste en mí
G5                     D5
sus ríos son canciones que deje a deber
E5                    C5
son desagües de mi ayer


C5 D5 E5                  D5
Seguiré caminando por la vida
                     G5
sin volver la vista atrás
                  D5
nunca dejé una partida
D5
lucho siempre hasta el final

(1:23)
--------------------------------------------------
-----------------------------15---15--------------
--16------16-16-16-16--17---------------14/16/14--
--------------------------------------------------
--------------------------------------------------
--------------------------------------------------

----------------------------
----------------------------
--14-14-14-14---16--17--16--
----------------------------
----------------------------
----------------------------

---------------------------------------
--------------------15--15-------------
-16-16-16-16---17------------14/16/14--
---------------------------------------
---------------------------------------
---------------------------------------

------------------------
------------------------
-14-14-14-14--12--11--9-
------------------------
------------------------
------------------------


(1:38)
------------------------------------------
------------------------------------------
------------------------------------------ (se repite
--5--4-----2-0-2-------5--4-----2-0-2----- varias veces)
------------------------------------------
------------------------------------------

Es el foro de la envidia
vertederos de opinión
donde se almacenan odios
cárcel de

---------------
---------------
---7-7---7-7---
---7-7---7-7---
---5-5---5-5---
---------------
una canción!!


(1:52)
G5
Venderme es hacerte caso
   D5
en vez de a mi corazón
E5                        C5
y si es tan fácil, hazlo tú


C5 D5 E5                  D5
Seguiré caminando por la vida
                      G5
sin volver la vista atrás
                 D5
nunca deje una partida
                        E5
lucho siempre hasta el final

C5 D5 E5                D5
Viviré peleando con la vida
                  G5
venderé cara mi piel
                  D5
sin lamerme las heridas
                            D5
y si molesto me quedo y que os den!
        C5
que os den!!

D5
Al menos tengo tu odio
C5
tengo tu rencor
C5
y si yo me pudro
      D5
te envenenará mi olor


SOLO DE GUITARRA*

(3:40)

C5 D5 E5                  D5
Seguiré caminando por la vida
                      G5
sin volver la vista atrás
                 D5
nunca deje una partida
                        E5
lucho siempre hasta el final

C5 D5 E5                D5
Viviré peleando con la vida
                  G5
venderé cara mi piel
                  D5
sin lamerme las heridas
                            D5
y si molesto me quedo y que os den!


el final es así:

------------------------------------------
------------------------------------------
------------------------------------------
--5--4-----2-0-2-------5--4-----2-0-2-----
------------------------------------------
------------------------------------------

(4:19)
---------------------------
---------------------------
---------------------------
-----5---------------0/2---
--5-----9--7--5--2---------
---------------------------

Fin

*El solo de guitarra no e podido sacarlo aun, pero
pronto lo tendré.
OK espero k esta tablatura les aya servido
 para entretenerse un rato.

Cualquier corrección, duda, sugerencia,
comentario, pregunta, colaboración, petición, queja,
 aclaración, declaración romántica, amenaza de muerte,
sermones, regaños, insultos, halagos, saludos o simplemente
para tirarme en la madre o platicar agrégame a mi correo.

soad244@

CALIFIQUEN POR FAVOR!!!
Suggest correction
Give kudos to tab author, rate the tab!
1 2 3 4 5
comments
print report bad tab
guest
You may want to rate the tab now too:
select rating
Wanna post a correction for this tab? Suggest correction