Oops, an error
Loading. Please wait.

Si Molesto Me Quedo Tab

version 2
version 2

Whole song

92 views 1 this week
no commentswrite comment
1 2 3 4 5
3 more votes to show rating
add to favorites
launch autoscroll
font size
0
reset
how to read this tab
guitar tuner
Autoscroll
slow
fast
+/-
esc
set tempo
stop
Qe ond!
Puez zigo aqi pazandolez miz tablaturaz jeje
Ojala y lez zalga bien...

Intro:

       G                       F                     G
e|------------------------9-9---------------------------------
B|-7-9-11---11-11-11-11-12---11h9h11---9-9-9-9-11-12-11-------

                       A
e|---------------9-9------------------------------------------
B|-11-11-11-11-12---11h9h11--9-9-9-9-7-6-4--------------------

ØØ:16                            G G  G G
e|----------------- x4        D|-5-5--5-5----------5-7-9-
B|-5h4h5--2hØh2----           A|-5-5--5-5-----5-7-9------
                              E|-7-7--7-7----------------

e|----------------- x7 <--Mientraz canta
B|-5h4h5--2hØh2----

   G G  G G
D|-5-5--5-5--
A|-5-5--5-5--
E|-7-7--7-7--

G               F
 Cada lágrima que lloré por ti
A                       G
 y todo el veneno que inoculaste en mí
C                        ?
 sus ríos son canciones que deje a deber
D              C
 son desagües de mi ayer


     G                         F
Seguiré caminando por la vida
e|------------------------9-9--------
B|-7-9-11---11-11-11-11-12---11h9h11-

                       G
sin volver la vista atrás
e|-------------------------
B|--9-9-9-9-11-12-11-------

                  A
nunca dejé una partida
e|---------------9-9--------
B|-11-11-11-11-12---11h9h11-

                          G
lucho siempre hasta el final
e|----------------------------------
B|-9-9-9-9-7-6-4--------------------

       G                       F                     G
e|------------------------9-9---------------------------------
B|-7-9-11---11-11-11-11-12---11h9h11---9-9-9-9-11-12-11-------

                       A
e|---------------9-9------------------------------------------
B|-11-11-11-11-12---11h9h11--9-9-9-9-7-6-4--------------------


                                G G  G G
e|----------------- x7       D|-5-5--5-5--
B|-5h4h5--2hØh2----          A|-5-5--5-5--
                             E|-7-7--7-7--


C
 Venderme es hacerte caso
   ?
en vez de a mi corazón
D                         C
 y si es tan fácil, hazlo tú

     G                         F
Seguiré caminando por la vida
e|------------------------9-9--------
B|-7-9-11---11-11-11-11-12---11h9h11-

                       G
sin volver la vista atrás
e|-------------------------
B|--9-9-9-9-11-12-11-------

                  A
nunca dejé una partida
e|---------------9-9--------
B|-11-11-11-11-12---11h9h11-

                          G
lucho siempre hasta el final
e|----------------------------------
B|-9-9-9-9-7-6-4--------------------

     G                         F
Viviré peleando con la vida
e|------------------------9-9--------
B|-7-9-11---11-11-11-11-12---11h9h11-

                  G
venderé cara mi piel
e|-------------------------
B|--9-9-9-9-11-12-11-------

                  A
sin lamerme las heridas
e|---------------9-9--------
B|-11-11-11-11-12---11h9h11-

                          G
y si molesto me quedo y que os den!
e|----------------------------------
B|-9-9-9-9-7-6-4--------------------

         G
que os den!

A
Al menos tengo tu odio
G
tengo tu rencor
A
 y si yo me pudro
      G
te envenenará mi olor


<--Aqi va el requinto... pero ze loz debo xD-->


Ø3:41
     G                         F
Seguiré caminando por la vida
e|------------------------9-9--------
B|-7-9-11---11-11-11-11-12---11h9h11-

                       G
sin volver la vista atrás
e|-------------------------
B|--9-9-9-9-11-12-11-------

                  A
nunca dejé una partida
e|---------------9-9--------
B|-11-11-11-11-12---11h9h11-

                          G
lucho siempre hasta el final
e|----------------------------------
B|-9-9-9-9-7-6-4--------------------


     G                         F
Viviré peleando con la vida
e|------------------------9-9--------
B|-7-9-11---11-11-11-11-12---11h9h11-

                  G
venderé cara mi piel
e|-------------------------
B|--9-9-9-9-11-12-11-------

                  A
sin lamerme las heridas
e|---------------9-9--------
B|-11-11-11-11-12---11h9h11-

                          G
y si molesto me quedo y que os den!
e|----------------------------------
B|-9-9-9-9-7-6-4--------------------

e|-------------- x4     e|--------------
B|-5h4h5--2hØh2-        B|-4h5-4-3-2-1-Ø  FIN


Arre CABRONEZ!!!
Pz ahi ezta ezta tablatura qe talvez ze parezca un poco a la de Abraham...
Pero NO ez la mizma, zolo la tome de referencia ok?
Luego empiezan loz pleitoz xD
jajajajajaja
Y para mi zono mejor azi, para acuztica
Ahi uztedez veanle...

Arriba Mägo de Oz!!!
Yeah!

PD. Ezta tablatura va dedicada a una niña qe me hace zufrir mucho xD
jeje, pero ahun azi la qiero mucho...
Janeth =)

                         ·Logan ?Zephiroth?·
Suggest correction
Give kudos to tab author, rate the tab!
1 2 3 4 5
comments
print report bad tab
guest
You may want to rate the tab now too:
select rating
Wanna post a correction for this tab? Suggest correction