Oops, an error
Loading. Please wait.

Siempre (Adiós Dulcinea - Parte Ii) Tab

103 views 3 this week
no commentswrite comment
1 2 3 4 5
3 more votes to show rating
add to favorites
launch autoscroll
font size
0
reset
how to read this tab
guitar tuner
Autoscroll
slow
fast
+/-
esc
set tempo
stop
Help us to improve Ultimate-Guitar.com Take our survey!
×
Rolón!!!

*Intro de Piano
[Recuerden, las notas son agudas para darle el efecto de piano
 pero pueden tocarlo una octava mas abajo si no les alcanza el
 brazo de la guitarra]

    C#m      G#m          A        A        B
e. -------16-------19----------------------------|
B. -17-------16-------16----------17-16----------|
G. ----------------------18-------------18-16----|
D. ----18-------18-------------19-------------16-|
A. -16----------------------19-------------14----|
E. ----------16----------17-------17-------------|

    C#m      G#m                A                    B
e. ----------------------16-19-21----------24-23-21-------|
B. -9------9-12-------12----------------------------24----|
G. ------9---------13-------------------18-------------23-|
D. ---11--------13-------------------19-------------------|
A. ----------11-------------------19----------------------|
E. -9--------------------------17-------------------19----|

    C#m
e. -------------------------|-------------------------|
B. -17----17----17----17----|-17----17----17----17----|
G. -18----18----18----18----|-18----18----18----18----|
D. ----18----18----18----18-|----18----18----18----18-|
A. -16----------------------|-16----------------------|
E. -------------------------|-------------------------|

*Verso

      C#m        A
Como ayer, te busque
       B           E     B  C#m
en el doble techo de mi corazón
    A                E        B
y hallé nostalgia de ti, soledad.

   C#m        A
Comencé a llorar
       B        E    B      C#m
estos versos bañados en canción,
   A               E            B
quiero volver a dormir con tu olor.

*Pre-coro

 A
Desahucie tus besos
       C#m       B     A
de mi memoria y digo adiós
    B
te dejaré marchar.

*Coro

       E       B
Duele tanto vivir
         A        C#m
duele siempre sin ti
     G#m      A
necesito tu olor
     E         B
necesito tu calor.

   E         B
Quiero perfumar
         A          C#m
mi alma con gotas de ti
      G#m        A
y archivar mi dolor
       E               D             E
en el doble fondo que hay en mi colchón.

[Violín]

        E      G#m    A       B       C#m   B     A
e. ----------7-7-----12-11-9----|-------7-----7-----|
B. ---7-9-10-----9-----------12-|---7-9-----7---7---|
G. -9--------------9------------|-9-------9-------9-|
D. -----------------------------|-------------------|
A. -----------------------------|-------------------|
E. -----------------------------|-------------------|

            B    C#m
e. -12p11-9---------|
B. ---------12----9-|
G. ------------11---|
D. -----------------|
A. -----------------|
E. -----------------|

*Verso

      C#m       A
Como ayer me perdí
       B            E   B     C#m
en el laberinto de caminar sin ti
   A                   E         B
grite ¿mi amor dónde estás? y lloré.

*Pre-coro

 A
Tú me preguntabas
       C#m    B   A
cuanto te quería yo,
     B
te quiero siempre amor.


*Coro

       E5     B5
Duele tanto vivir
         A5      C#5
duele siempre sin ti
     G#5     A5
necesito tu olor
     E5       B5
necesito tu calor.

   E5       B5
Quiero perfumar
        A5          C#5
mi alma con gotas de ti
      G#5       A5
y archivar mi dolor
       E5             D5           C#5
en el doble fondo que hay en mi colchón.

*Puente

         B5            A5
Pinto amaneceres sin saber
             B5                     C#5
cual es el dolor que ahora tiene tu piel
           B5         A5      B             C#5
canto despedidas en papel, desechos de tu querer.

*Solo

                     B5
e. ---------------------------|*NOTA: Para saber si el slide //
B. ---------------------------|es ascendiente ó descendiente
G. -/18-20-20-18-20b(21)//~~~-|checa la dirección de la flecha debajo
D. ->-------------------<<----|>> ó << , esto se debe a que no me
A. ---------------------------|permite usar el símbolo contrario a //
E. ---------------------------|al pegarlo al texto...

        A5           B5
e. -----------------------------------------|
B. -/21-21//~~~-/21-21/19-19/17-17/16-16/14-|
G. ->-----<<---->-----<-----<-----<-----<---|
D. -----------------------------------------|
A. -----------------------------------------|
E. -----------------------------------------|

    C#5      B5       A5                     B5
e. ------------------------------------------------------|
B. -14-16-17----16-17------------------------------------|
G. ----------16-------14~-14/16/13----13~-------16~~~***-|
D. ------------------------->--<---14-----14-16----------|
A. ------------------------------------------------------|
E. ------------------------------------------------------|
                                 ***- pinch harmonic

*Coro

       E5     B5
Duele tanto vivir
         A5      C#5
duele siempre sin ti
     G#5     A5
necesito tu olor
     E5       B5
necesito tu calor.

   E5       B5
Quiero perfumar
        A5          C#5
mi alma con gotas de ti
      G#5       A5
y archivar mi dolor
       E5             D5
en el doble fondo que hay...


                C#m
Te quiero siempre mi amor

*Outro
[Piano]
    C#m      G#m          A        A        B    C#m
e. -------16-------19--------------------------------|
B. -17-------16-------16----------17-16-----------5--|
G. ----------------------18-------------18-16-----6--|
D. ----18-------18-------------19-------------16--6--|
A. -16----------------------19-------------14-----4--|
E. ----------16----------17-------17-----------------|
[Violín]                                             |
e. --------------------------------------------------|
B. -------------14-12/14/12-------17-16--------------|
G. ------11-13------->--<---------------18-16--------|
D. ---14-------------------14~----------------16-18~-|
A. --------------------------------------------------|
E. --------------------------------------------------|


Suggest correction
Give kudos to tab author, rate the tab!
1 2 3 4 5
comments
print report bad tab
guest
You may want to rate the tab now too:
select rating
Wanna post a correction for this tab? Suggest correction