Oops, an error
Loading. Please wait.

Sin Tí, Sería Silencio Chords

version 2
version 2

Whole song

31 views 1 this week
no commentswrite comment
1 2 3 4 5
3 more votes to show rating
add to favorites
launch autoscroll
font size
0
reset
transpose
0
reset
simplify chords
display chords
guitar tuner
Autoscroll
slow
fast
+/-
esc
set tempo
stop
Help us to improve Ultimate-Guitar.com Take our survey!
×
Hola... aqui esta esta bella cancion de mago... espero que les
guste... si le encuentran fallas haganmelo saber... pero asi suena
bien... el solo de violin lo acomode para hacerlo en la guitarra...

Acordes: A - Asus2 - Dsus4 - Dsus2 - D - E - C - F#

Intro:
e|-----0---|-----2p3h2-|-----0---|-----0----|-----0---|-----2----|
B|-0-----0-|-0---------|-0-----0-|-0--------|-0-----0-|-0--------|
G|---1-----|---2-------|---1-----|---2------|---1-----|---2------|

e|-----2-3-2------|
B|---3--------3---|
G|-2------------2-|

Arpegio:
  E          A*         E         Asus2      E         A*
e|-----0---|-----2----|-----0---|-----0----|-----0---|-----2----|
B|-0-----0-|-0--------|-0-----0-|-0--------|-0-----0-|-0--------|
G|---1-----|---2------|---1-----|---2------|---1-----|---2------|

  D*
e|-----2-3-2------|
B|---3--------3---|
G|-2------------2-|

E               A*
Desde que no estás

E       Asus2
el escenario duerme

E            A*          D*
sólo con tu voz despertará


E            A*
Si pudieras ver

E         Asus2
lo mucho que me faltas

E              A*            D*
mi guitarra se ha muerto de pie


 E               Asus2
Cada noche es un acto de amor

 E                         C
y el concierto se hace una cama

     E          Asus2
pero faltas tú, tu respiración

   D
es la nana que me calma


    E    Asus2  E    D**               D**
Sin ti sería silencio                e|-----3-2-|
                                     B|---3-----|
    E      Asus2    E    D**         G|-2-------|
sin ti se muere mi voz

    E    Asus2      E    D**
sin ti tiritan de frío

     E        Asus2    E    D**
los sueños de cada canción

       A
Porque si no estás

         E
Quien me va a curar

   D  Dsus4 D   Dsus2
de mi so - le - dad

       A
porque sin tu voz

      E
no me curaré,

    D     Dsus4  D    Dsus2
hoy quie - ro   can - tar


E              Asus2
Desde que no estás

E              Asus2
los minutos se hacen horas

E           Asus2        D    Dsus4 D
la derrota silva una canción

E             Asus2
Dime dónde estás

E         Asus2
necesito que tus manos

E          Asus2          D    Dsus4 D
maten mis miedos al aplaudir


 E                Asus2
Cada noche yo te imagino aquí

 E               C
regalándome tu mirada

 E               Asus2
abrazándome con brazos de luz

 D
tu sonrisa era mi almohada


    E    Asus2  E    D**
Sin ti sería silencio

    E      Asus2    E    D**
sin ti se muere mi voz

    E    Asus2      E    D**
sin ti tiritan de frío

     E        Asus2    E    D**
los sueños de cada canción

       A
Porque si no estás

         E
Quien me va a curar

   D  Dsus4 D   Dsus2
de mi so - le - dad


       A
porque sin tu voz

       E
no me curaré,

    D     Dsus4  D    Dsus2
hoy quie - ro   can - tar

C#m           Asus2
Dile a las estrellas

      E              Asus2
ahora que eres eternidad

      E               C
que te busque un buen sitio

     E            D
una buena localidad


C#m       Asus2
Necesito oírte

    E            Asus2
necesito que tu voz

E        C           E    D    Dsus4 - D
nunca se borre de mi ser


Violín Solo:

e|-12-----10-|-12-10-8--7|----5--7--|-8-----7-8-|
B|-----------|-----------|----------|-----------|
G|-----------|-----------|----------|-----------|
D|-----------|-----------|----------|-----------|
A|-----------|-----------|----------|-----------|
E|-----------|-----------|----------|-----------|

e|-7-5-----|-8-10-12---10-|-12-13-15--17|---15--13--|
B|---------|--------------|-------------|-----------|
G|---------|--------------|-------------|-----------|
D|---------|--------------|-------------|-----------|
A|---------|--------------|-------------|-----------|
E|---------|--------------|-------------|-----------|

e|-12-17---17-|-15-13-12---|
B|------------|------------|
G|------------|------------|
D|------------|------------|
A|------------|------------|
E|------------|------------|

Guitar Solo:

e|------------------------------------------|
B|--------------------12v-10----10-8---8v---|
G|-------9v--9-10-12---------12------9------|
D|-10-12------------------------------------|
A|------------------------------------------|
E|------------------------------------------|

e|-------------------------14-12----14--16b-|
B|-----------------12v--12-------14---------|
G|-------9v--10-12--------------------------|
D|-10-12------------------------------------|
A|------------------------------------------|
E|------------------------------------------|

e|--16-14-12-14------|
B|-------------------|
G|-------------------|
D|-------------------|
A|-------------------|
E|-------------------|


    E    Asus2  E    D**
Sin ti sería silencio

    E      Asus2    E    D**
sin ti se muere mi voz

    E    Asus2      E    D**
sin ti tiritan de frío

     E        Asus2    E    D**
los sueños de cada canción

    E    Asus2  E    D**
Sin ti sería silencio

    E      Asus2    E    D**
sin ti se muere mi voz

    E    Asus2      E    D**
sin ti tiritan de frío

     E        Asus2    E    D**
los sueños de cada canción

       A
Porque si no estás

         E
Quien me va a curar

   F# G    F#   E
de mi so - le - dad

       A
porque sin tu voz

      E
no podré escuchar

     F#   G   F#    E
a un án - gel can - tar

Asus2 x02200
Dsus4 xx0233
Dsus2 xx0230

Bb... Esta song te la dediko a ti... t amo...

.-*S+S= 
Suggest correction
Give kudos to tab author, rate the tab!
1 2 3 4 5
comments
print report bad tab
guest
You may want to rate the tab now too:
select rating
Wanna post a correction for this tab? Suggest correction