Oops, an error
Loading. Please wait.

Sueños Diabólicos Tab

version 1
version 1

Whole song

Interactive

32 views 1 this week
no commentswrite comment
1 2 3 4 5
3 more votes to show rating
add to favorites
launch autoscroll
font size
0
reset
how to read this tab
guitar tuner
Autoscroll
slow
fast
+/-
esc
set tempo
stop
Help us to improve Ultimate-Guitar.com Take our survey!
×
e|----10-9-10--10-9-10---10-9-10----7-5-7-5-3-2-3----
B|-10--------10-------10---------10-----------------
G|-------------------------------------------------
D|-------------------------------------------------

e|--7-3-7---7-3-7----7-3-7--7-10-7-10-9-7-----------
B|-------5--------5-------5--------------10--------
G|-------------------------------------------------
D|-------------------------------------------------

e|-10-9-10--10-9-10--10-9-10---7-5-7-5-3-2-3-------
B|--------10-------10-------10--------------------
G|-------------------------------------------------
D|-------------------------------------------------

e|-7-5-3-2---------0/22»-----------------------------------
B|--------5-3-2-3~--------------------------------------
G|-------------------------------------------------
D|-------------------------------------------------
Riff 2
e|-5-2-5--5-2-5--5-2-5--5-7---5-7-5-3--3-7---------------
B|------3------3------3--------------7----5-------------
G|-------------------------------------------------
D|-------------------------------------------------

e|--7-3-7--7-3-7--7-3-7---5-10-9-10-9-5-2-5--5-2-5--5-2-5-
B|-------5------5--------------------------3------3------3
G|--------------------------------------------------------
D|--------------------------------------------------------

e|--5-7-5-7-5-3-2-3---7-5-3-2--------0/22-»-------
B|---------------------------5-3-2-3---------------
G|-------------------------------------------------
D|-------------------------------------------------

Después repiten eso las veces
Que sean necesarias toda la canción va igual


Esta es parte de la flauta   (1:52)
e|-12---17-15-17-14-12-17-15-17-14-----------------
B|-------------------------------------------------
G|-------------------------------------------------
D|-------------------------------------------------
La flauta se pude acompañar con acordes
De A y B (CREO)Y SI NO CALENLE CON D

»=esa madre significa qe recorran el mastil
completo


le mando saludos a toda mi familia
primos y todos y que sepan que sonb chidos
a toda madre saludos al gran "Charly"(Krlos)
Me la pelan kbrones!!!(no se crean)


(U)(H)°º¤ø,¸¸,(li)ø¤º°
`°º¤ø,¸?´¯)(ip)~²ºº²~§
Suggest correction
Give kudos to tab author, rate the tab!
1 2 3 4 5
comments
print report bad tab
guest
You may want to rate the tab now too:
select rating
Wanna post a correction for this tab? Suggest correction