Oops, an error
Loading. Please wait.

Sueños Dormidos Tab

471 views 3 this week
no commentswrite comment
1 2 3 4 5
2 more votes to show rating
add to favorites
launch autoscroll
font size
0
reset
how to read this tab
guitar tuner
Autoscroll
slow
fast
+/-
esc
set tempo
stop
Help us to improve Ultimate-Guitar.com Take our survey!
×
Aquí va el solo: ( es mi primera tab, comenten y valoren)

1)--------------------------------------------------|
2)-5x-3-5-------------------------------------------|
3)--------4-2-1x------------------------------------|
4)---------------2-3-2x----0-2-0--0x----------------|
5)---------------------0-2------2---3-5-3-2---------|
6)------------------------------------------5-3-1-0-|

1)--------------------------------
2)----12x---12-13x-10-12-13-12-13
3)9-9----9-9--9------------------

1)---------------------------------------|
2)-7/10/4/9-6-5x-12-13-15-13-12-13-12----|
3)------------------------------------14x|

1)-------------------------------------------
2)12-13-12x-10-12-10x-9-10-9-----------------
3)---------------------------10-9-10-7-5-4/5x

1)-----------------------------------------------
2)-----5-5---6-5--------------------5------------
3)-5-5-----5-----5-7-5-4x-4-5-7-7-4---7-4-5-4----
4)--------------------------------------------7x-

1)--------------------------------------
2)-------------------------5---6-6-5x---
3----0-4-5-7-5-4---4-5-4x----4-----------
4)-7-------------7----------------------


1)----------------------12-12----13-12-------------
2)--/12-13-15-17b-13-13-------13-------13-15-13-12x
3)-------------------------------------------------

1)----------------------------------
2)-12-13-15-15-12-15-17-12-13-12----
3--------------------------------14x

1)--------------------------------------------------------------
2)--------------------------------------------------12-13-15-17b
3)-14-12-14x-10-9-10x-7-9-10-7-9-10-9-10-12-9-10-12-------------
Suggest correction
Give kudos to tab author, rate the tab!
1 2 3 4 5
comments
print report bad tab
guest
You may want to rate the tab now too:
select rating
Wanna post a correction for this tab? Suggest correction