Oops, an error
Loading. Please wait.

T'esnucaré Contra'l Bide Bass Tab

28 views 1 this week
no commentswrite comment
1 2 3 4 5
3 more votes to show rating
add to favorites
launch autoscroll
font size
0
reset
guitar tuner
×
Best way to learn
"T'esnucaré Contra'l Bide"
Autoscroll
slow
fast
+/-
esc
set tempo
stop
      E         A         G         B        A#
E ?0-0-0-0-|---------|-3-3-3-3-|---------|---------|
A ---------|-0-0-0-0-|---------|-2-2-2-2-|-1-1-1-1-|
D ---------|---------|---------|---------|---------|
G ---------|---------|---------|---------|---------|  (x4)


                     E
E ?0-0-0-0-0-0-0-0-0-0-0-0-0-0-0-0-0-0-0-0-|
A -----------------------------------------|
D -----------------------------------------|
G -----------------------------------------|


              E                 A         G
E ?0-0-0-0-0-0-0-0-0-0-0-0-|---------|-3-3-3-3-|
A -------------------------|-0-0-0-0-|---------|
D -------------------------|---------|---------|
G -------------------------|---------|---------|


              B                 A         E
E -------------------------|---------|-0-0-0-0-|
A ?2-2-2-2-2-2-2-2-2?2-2-2-|-0-0-0-0-|---------|
D -------------------------|---------|---------|
G -------------------------|---------|---------|


            B                     A
E ---------------------|---------------------|
A ?2-2-2-2-2-2-2-2-2-2-|-0-0-0-0-0-0-0-0-0-0-|
D ---------------------|---------------------|
G ---------------------|---------------------|


              E                 A         E
E ?0-0-0-0-0-0-0-0-0-0-0-0-|---------|-0-0-0-0-|
A -------------------------|-0-0-0-0-|---------|
D -------------------------|---------|---------|
G -------------------------|---------|---------|


              B                 A         B
E -------------------------|---------|---------|
A ?2-2-2-2-2-2-2-2-2-2-2-2-|-0-0-0-0-|-2-2-2-2-|
D -------------------------|---------|---------|
G -------------------------|---------|---------|


      E         A         G         B        A#
E ?0-0-0-0-|---------|-3-3-3-3-|---------|---------|
A ---------|-0-0-0-0-|---------|-2-2-2-2-|-1-1-1-1-|
D ---------|---------|---------|---------|---------|
G ---------|---------|---------|---------|---------|  (x4)


E ?0-0-0-0-0-0-0-0-0-0-0-0-0-0-0-0-0-0-0-0-|
A -----------------------------------------|
D -----------------------------------------|
G -----------------------------------------|


              E                 A         G
E ?0-0-0-0-0-0-0-0-0-0-0-0-|---------|-3-3-3-3-|
A -------------------------|-0-0-0-0-|---------|
D -------------------------|---------|---------|
G -------------------------|---------|---------|


              B                 A         E
E -------------------------|---------|-0-0-0-0-|
A ?2-2-2-2-2-2-2-2-2?2-2-2-|-0-0-0-0-|---------|
D -------------------------|---------|---------|
G -------------------------|---------|---------|


            B                     A
E ---------------------|---------------------|
A ?2-2-2-2-2-2-2-2-2-2-|-0-0-0-0-0-0-0-0-0-0-|
D ---------------------|---------------------|
G ---------------------|---------------------|


              E                 A         E
E ?0-0-0-0-0-0-0-0-0-0-0-0-|---------|-0-0-0-0-|
A -------------------------|-0-0-0-0-|---------|
D -------------------------|---------|---------|
G -------------------------|---------|---------|


              B                 A         B
E -------------------------|---------|---------|
A ?2-2-2-2-2-2-2-2-2-2-2-2-|-0-0-0-0-|-2-2-2-2-|
D -------------------------|---------|---------|
G -------------------------|---------|---------|


      E         G         A
E ?0-0-0-0-|-3-3-3-3-|---------|
A ---------|---------|-0-0-0-0-|
D ---------|---------|---------|
G ---------|---------|---------|  (x4)


E ---------|---------|---------|
A -0-0-0-0-|-3-3-3-3-|---------|
D ---------|---------|-0-0-0-0-|
G ---------|---------|---------|  (x2)


      E         G         A
E ?0-0-0-0-|-3-3-3-3-|---------|
A ---------|---------|-0-0-0-0-|
D ---------|---------|---------|
G ---------|---------|---------|  (x2)


      E         A         G         B        A#
E ?0-0-0-0-|---------|-3-3-3-3-|---------|---------|
A ---------|-0-0-0-0-|---------|-2-2-2-2-|-1-1-1-1-|
D ---------|---------|---------|---------|---------|
G ---------|---------|---------|---------|---------|  (x2)


      B        A#                 A
E ---------|---------|-------------------------|
A ?2-2-2-2-|-1-1-1-1-|-0-0-0-0-0-0-0-0-0-0-0-0-|
D ---------|---------|-------------------------|
G ---------|---------|-------------------------|


      B        A#                 A
E ---------|---------|-------------------------|
A ?2-2-2-2-|-1-1-1-1-|-0-0-0-0-0-0-0-0-0-0-0-0-|
D ---------|---------|-------------------------|
G ---------|---------|-------------------------|


      B
E ---------|
A ?2-2-2-2-|
D ---------|
G ---------|


      G         A         E
E ?3-3-3-3-|---------|-0-0-0-0-|
A ---------|-0-0-0-0-|---------|
D ---------|---------|---------|
G ---------|---------|---------|


No es mas y el verdadero nombre de la cancion es
'T'Esnucare contra l'bide' solo es para que corrigan.
Suggest correction
Give kudos to tab author, rate the tab!
1 2 3 4 5
comments
print report bad tab
guest
You may want to rate the tab now too:
select rating
Wanna post a correction for this tab? Suggest correction