Oops, an error
Loading. Please wait.

T'esnucaré Contra'l Bide Tab

version 3
version 3

Whole song

22 views 1 this week
no commentswrite comment
1 2 3 4 5
3 more votes to show rating
add to favorites
launch autoscroll
font size
0
reset
how to read this tab
guitar tuner
×
Best way to learn
"T'esnucaré Contra'l Bide"
Autoscroll
slow
fast
+/-
esc
set tempo
stop
que onda este es un tab de los cabritos de mago
que quedaron de venir a mexico en el circo volador
pero no se pudo pero ya consequi informacion 
por contactos qie tengo ahi van a venir por septiembre
del 2003 va alertas.

intro: esto empieza como una rola de los rolling stones
suena chido

----------------------------------------------------
----------------------------------------------------
----------------------------------------------------
----------------------------------------------------
----14-14-14-14-14-14-14--17-19---------------------
----12-12-11-12-12-12-12--15-17---------------------

aqui estan las notas

        E                       A
-------------             --------------------
-------------             --------------------     
-------------             --------------------
-------------             --------------------
---2---------             -------7------------
---0---------             -------5------------


     G                          B
--------------            --------------------
--------------             -------------------
--------------             -------------------
--------------              ----------------- 
----5---------             --------4----------
----3---------             --------2----------   


     A#
---------------
---------------
---------------
---------------
-----8---------
-----6---------     


LETRA:

E
TE SUCCIONARE EL CEREBRO POR LA OREJA CON UN ASPIRADOR
E                                           A      G
TE ARRANCARE TU SUCIA LENGUA POR DECIR QUE ODIAS EL 
ROCK&ROLL

B                      A                  E
TE SACARE TUS LINDOS OJOS Y LOS BAÑARE CON PUS Y ALCOHOL
B                  A
UNA INYECCION DE LEGIA O NENA ES LA SOLUCION


E                      A                E
CARIÑO SE HA TERMINADO QUE ROMPAS MI GUITARRA OTRA VEZ
B                            A                             B     
QUE ESCONDAS TODOS MIS DISCOS TE VOYA ESNUCAR CONTRA EL BIDE
E
TE VOY ACORTAR LAS VENAS CON MI MAQUINITA DE AFEITAR
E                                   A     G
TE ARRANCARE LAS TETAS Y EN LA HERIDA LUEGO ECHARE SAL
B                        A                         E
MALTRATE USTED A SU SEÑORA SI NO LE GUSTA EL ROCK & ROLL
B               A
AMPUTELE LAS PIERNAS Y LUEGO METALAS EN FORMOL

AQUI VA OTRA VEZ LO DE : CARIÑO SE  HA TERMINADO

VA ESTA ES MI ROLA QUE LES MANDO Y RECUERDEN 
LO DE EL EVENTO EN SEPTIEMBRE
Suggest correction
Give kudos to tab author, rate the tab!
1 2 3 4 5
comments
print report bad tab
guest
You may want to rate the tab now too:
select rating
Wanna post a correction for this tab? Suggest correction