Oops, an error
Loading. Please wait.

Toda La Noche Tab

version 2
version 2

Whole song

37 views 1 this week
no commentswrite comment
1 2 3 4 5
3 more votes to show rating
add to favorites
launch autoscroll
font size
0
reset
how to read this tab
guitar tuner
×
Best way to learn
"Toda La Noche"
Autoscroll
slow
fast
+/-
esc
set tempo
stop
Intro   C# - F#

e|----------------------------------------
b|-----9----9----9----9----9----9----9----
g|--6-6--6-6--6-6--6-6--6-6--6-6--6-6--4--
D|----------------------------------------
A|----------------------------------------
E|----------------------------------------

Riff 1         Rif 2
e|-------------|-------------------
b|-------------|-------------------
g|--6--4-3-----|--12~--------------
D|---------6---|-------------------

Riff 3           Riff 4    Riff 5
e|-------------|----------|-----------------
b|-------9b11--|---12b14--|--14--12--11-----
g|--9b11-------|----------|--------------13-
D|-------------|----------|-----------------

Verso 1
  F#........C#........E...A.........C#.....F#
g|------8-|------3-|-----6-------|------3-|------8-|
d|-6-6----|-1-1----|-4-4-------4-|-1-1----|-6-6----|
a|--------|--------|-------4-4---|--------|--------|
  Verso 1
       F#              C#
No se si tu quieras volver a verme
        E                    B         C#
solo una vez pues me haces sentir muy bien
          F#                C#
en mi corazon has de estar tu por siempre
         E                     B                 C#
no hay por que no alucinar que eres mi amor por siempre

   Coro   C# -- F#
Juntos la noche poder caminar
olvida todo hasta el que diran
siente que el aire no queme al pasar
siente el ser libre hasta el amanecer
sin alucines ya dejate ser caminaremos juntos al final

    Verso 2
                         F#   Riff 1
Solo por ti siento mi mente vagar
     Riff 2 E                  C#    Riff 3
y se que tu tal vez pronto lo olvidaras
         F# Riff 4            C# Riff 3
y el alucin conmigo se a de quedar
              E                  B            C#
no hay porque no alucinar y eres mi amor por siempre

   Coro

Break
     G#     C#        A#m       B
Porque yo se ouoh que no he podido amar
 D#m                 C#
a nadie mas lo sabes bien ouoh
   Coro
*Toda la noche hasta el amanecer
la pasaras conmigo tu muy bien
   Solo
  A#m     B      D#m           C#
e|---------------------------------------------
b|---------------------------------------------
g|-----13--9-----------------------------------
D|--11-------12--14/16---14/16---14/16---------
A|---------------------------------------------
E|---------------------------------------------

C# ---- F#
e|----------------------------------------------
b|---------6--9--6-----------6---9-------6------
g|--6--8------------8--6--8--------6--8------8--
D|----------------------------------------------
A|----------------------------------------------
E|----------------------------------------------
F# ---  C#
e|------------11---------------------------------
b|-11--12--14----14--12--11--12--14--12----------
g|-----------------------------------------------
D|-----------------------------------------------
A|-----------------------------------------------
E|-----------------------------------------------

la verdad yo no creo que esta cancion sea de mago de oz.......
Suggest correction
Give kudos to tab author, rate the tab!
1 2 3 4 5
comments
print report bad tab
guest
You may want to rate the tab now too:
select rating
Wanna post a correction for this tab? Suggest correction