Oops, an error
Loading. Please wait.

Todo Irá Bien Chords

version 3
version 3

Whole song

22 views 1 this week
no commentswrite comment
1 2 3 4 5
3 more votes to show rating
add to favorites
×
Save as Personal and add changes to this tab that will be seen only by you. Learn more ›
×
You can save this tab as Personal to edit and correct it or add notes. All changes will be seen only by you. Learn more »
save as personal
new!
launch autoscroll
font size
0
reset
transpose
0
reset
display chords
guitar tuner
Autoscroll
slow
fast
+/-
esc
set tempo
stop
Strumming
There is no strumming pattern for this song yet. and get +5 IQ
(Versión corregida de una transcripción existente)

ESTO SE TOCA AL MISMO TIEMPO QUE LOS ACORDES (como Guitarra 1)
    D      A      D      D      G      D      A      A      G      A
----2------0------2------2------3------2------0------0------3------0---
---3-3----3-3----3-3----3-3----0-0----3-3----3-3----3-3----0-0----3-3--
--2---2--3---3--2---2--2---2--0---0--2---2--3---3--3---3--0---0--3---3-
-0------3------0------0-------------0------3------3-------------3------
-----------------------------------------------------------------------
-----------------------------3---------------------------3-------------

    Bm     Em     D      A      D      D
----2------0------2------0------2------2-------
---3-3----0-0----3-3----3-3----3-3----3-3---------
--4---4--0---0--2---2--3---3--2---2--2---2--------
-4------2------0------3------0------0----------
------------------------------------------------------
------------------------------------------------------

D   A D          G   D A     G   A      Bm Em       D    A  D
Duermete ke yo estoy akí la luna te guiará te acunará su voz.
D   A    D        G  D     A   G    A     Bm  Em      D     A   D
Sueña y ve hacia donde el sol desprende paz rayos color de amor.

    F#m    Bm     F#m    Bm     F#m    Bm     F#m    Bm
----2------2------2------2------2------2------2------2-----
---2-2----3-3----2-2----3-3----2-2----3-3----2-2----3-3----
--2---2--4---4--2---2--4---4--2---2--4---4--2---2--4---4---
-4------4------4------4------4------4------4------4--------
-----------------------------------------------------------
-----------------------------------------------------------
Y AHORA CONTINUA DE LA MISMA FORMA

F#m         Bm F#m         Bm    F#m          Bm  F#m          Em  A
No mires atrás ella estará bien su angel eres tu nunca te olvidará.

ESTO SE HACE COMO AL PRINCIPIO(como Guitarra 1)

D   A D          G   D A         G   A              Bm Em      D    A  D
Esperame,tengo ke vivir ke al rio del sueño pronto iré a nadar junto a ti.
D   A D        G  D  A   G        A      Bm  Em     D A  D
Lloraré al pensar en ti lagrimas de soledad perfumamé de ti.

    D      A
----2------0---
---3-3----3-3-- Se repite
--2---2--3---3- 8veces y
-0------3------ se acaba
--------------- con D
---------------
Punteo

SUBE UN TONO
E   B       E            A         E           B
No descansaré no, hasta ke tu recuerdo viva en mi
A                  B         E   A        E     B     E
dame fuerzas pues debo continuar aunke sin ti,kiero vivir.


SUBE OTRO TONO
F# C# F# F#         B       F#          C#
Duermete,duerme padre y descansa sin temor
       B          C#            F#     B         F#  C#  F#
ke al despertarte ya no habrá dolor y todo irá bien,mi amor
       B          C#            F#       B          F#  C#  F#
ke al despertarte te arrullará el amor y todo irá bien,mi amor.
Punteo


Para 'Mi'Isabel(F). Ya que tienes el corazón tan grande
como esta canción. Esta canción es mi mensaje para ti(L).
Un beso muy grande de tu Gon. Recuérdame siempre. Gracias por
ser así conmigo, nunca conocí a nadie igual.
Te quiero muchísimo.
Suggest correction
Give kudos to tab author, rate the tab!
1 2 3 4 5
comments
print report bad tab
guest
Wanna post a correction for this tab? Suggest correction