Oops, an error
Loading. Please wait.

Todo Irá Bien Tab

33 views 1 this week
no commentswrite comment
1 2 3 4 5
3 more votes to show rating
add to favorites
launch autoscroll
font size
0
reset
how to read this tab
guitar tuner
×
Best way to learn
"Todo Irá Bien"
Autoscroll
slow
fast
+/-
esc
set tempo
stop
(3:11) ? Intro de guitarra electrica
E|---------------|----------------------------7h10p7----7-------------------------------
B|---------------|--10b12--12b10hp7h10~--7h10--------10---10b12---------------------10--
G|---------------|-----------------------------------------------11b9-7-9-7---7-9b11----
D|---------------|----------------------------------------------------------9-----------
A|----------2-4--|----------------------------------------------------------------------
E|--0-2-4-5------|----------------------------------------------------------------------

----------------------------------------------------|
---\8-7h8p7-----------------------------------------|
------------9-7-------7-7---------------------------|
------------------7h9-----\7-5h7p5p4-4h5-4h5p4------|
-----------------------------------------------7-5--|
----------------------------------------------------|

(4:29) ? Solo de salida
|--------------------------------11-----------------------------------------------------
|---7--6----9b11-11b9p7h9p7--/11----14b16b-b14-12-12-11-11h12-12------------------------
|--------6-------------------------------------------------------13-11-13~-11h13p11p10--
|---------------------------------------------------------------------------------------
|---------------------------------------------------------------------------------------
|---------------------------------------------------------------------------------------

-------------------------------------------------------------14-11----11---------------
-------------------------------------------------------------------14-----14-11-14p11--
---------------------------------------------------------------------------------------
---11----------------------------11---11/13\11p9h11p9p8--------------------------------
------11---6-9-6-/8-11-8-/9---/9----9-------------------9-9----------------------------
---------------------------------------------------------------------------------------

----------------------------------------------|
------11------------------------14------------|
---13----13-11-13p11-------11~--13b15b13-11~--|
---------------------13p11--------------------|
----------------------------------------------|
----------------------------------------------|
El resto esta de mas porque se va con el fade out, asi que es mejor terminar ahi

| ::  § ? N § ? I  :: | - Las mejores tabs de Mägo de Oz
Suggest correction
Give kudos to tab author, rate the tab!
1 2 3 4 5
comments
print report bad tab
guest
You may want to rate the tab now too:
select rating
Wanna post a correction for this tab? Suggest correction