Oops, an error
Loading. Please wait.

Vodka 'n' Roll Tab

55 views 1 this week
no commentswrite comment
1 2 3 4 5
3 more votes to show rating
add to favorites
×
Save as Personal and add changes to this tab that will be seen only by you. Learn more ›
×
You can save this tab as Personal to edit and correct it or add notes. All changes will be seen only by you. Learn more »
save as personal
new!
launch autoscroll
font size
0
reset
how to read this tab
guitar tuner
Autoscroll
slow
fast
+/-
esc
set tempo
stop
*Intro

Ya!!!

    F5    A#5   F5    C5        F5    A#5   F5      C5
e. -5---5-6-8-6-5---5---------|-5---5-6-8-6-5-----5---|
B. ---6-----------6---8-6-5---|---6-----------8-6---8-|
G. -------------------------5-|-----------------------|
D. ---------------------------|-----------------------|
A. ---------------------------|-----------------------|
E. ---------------------------|-----------------------|

    F5    A#5   F5    C5        A#    C5    C5      D5
e. -5---5-6-8-6-5---5---------|-----------5-----------|
B. ---6-----------6---8-6-5---|-------5-6---8-6-5-6---|
G. -------------------------5-|-7-5-7---------------7-|
D. ---------------------------|-----------------------|
A. ---------------------------|-----------------------|
E. ---------------------------|-----------------------|

    F5                           D#5 C5
e. ------------------------------------|
B. ------------------------------------|
G. -------------------------------8--5-|
D. -------------------------------8--5-|
A. -6h8888888-6h8888888-6h8888888-6--3-|
E. ------------------------------------|

    F5                            F5
e. ----------------------------------|
B. ----------------------------------|
G. -------------------------------10-|
D. -------------------------------10-|
A. -6h8888888-6h8888888-6h8888888-8--|
E. ----------------------------------|


*Verso

 F5     D#5-F5
Vámonos de fiesta
D#5-F5  D#5-F5 D#5
la vamos a liar
 F5   D#5-F5       D#5 G#5 D#5
vamos a curar la soledad.
 F5     D#5-F5
Bebe tus fracasos
D#5-F5   D#5-F5 D#5
mátalos con Rock
      G#5  D#5     F5
tus miedos se ahogarán.


*Pre-coro

   G#5         D#5
Beberemos sin parar
    D#5           F5
bailaremos y al final
          G#5           D#5      C#5
no habrá dios que se mantenga en pie.
      G#5            D#5
Al ritmo del Rock n? Roll
     D#5       F5
sacaremos a bailar
       G#5      D#5     C#5   C5
a las penas con una traición.


*Coro

 F     A#            F
Ven, levanta de una vez
   A#             Dm
y bebe hasta el amanecer
    A#         C
tu alma tiene sed.
 F          A#               F
Ven, si el frío entra en tu piel
   A#        Dm
abrígate con un amor
   A#              C
bañado en Vodka?n?Roll.


    F5    A#5   F5    C5        F5    A#5   F5      C5
e. -5---5-6-8-6-5---5---------|-5---5-6-8-6-5-----5---|
B. ---6-----------6---8-6-5---|---6-----------8-6---8-|
G. -------------------------5-|-----------------------|
D. ---------------------------|-----------------------|
A. ---------------------------|-----------------------|
E. ---------------------------|-----------------------|

    F5    A#5   F5    C5        A#    C5    C5      D5
e. -5---5-6-8-6-5---5---------|-----------5-----------|
B. ---6-----------6---8-6-5---|-------5-6---8-6-5-6---|
G. -------------------------5-|-7-5-7---------------7-|
D. ---------------------------|-----------------------|
A. ---------------------------|-----------------------|
E. ---------------------------|-----------------------|


*Verso

F5
Si te encuentras sola
                 D#5
si te encuentras mal
    F5                    G#5 D#5
la luna es camarera de mi bar.
 F5                             D#5
Las estrellas son strippers y go-go?s
   G#5       D#5     F5
al sol nunca dejo entrar.


*Pre-coro

    G#5        D#5
Beberemos sin parar
     D#5           F5
gastaremos en champagne
      G#5         D#5 C#5
y después haremos el amor.
     G#5          D#5
Escuchando por canción
    D#5          F5
tu linda respiración
     G#5        D#5     C#5  C5
esto sí que es Rock n? Roll.


*Coro

F     A#            F
Ven, levanta de una vez
   A#             Dm
y bebe hasta el amanecer
    A#         C
tu alma tiene sed.
 F          A#               F
Ven, si el frío entra en tu piel
   A#        Dm
abrígate con un amor
   A#              C
bañado en Vodka?n?Roll.


*Puente

D5    F5  C5          D5
El doctor de la nostalgia
D5      F5   A#5   A5
por fiestero me recetó
 D5  F5   C5       D5
para la gripe del alma
 D5      F5   C5        D5
vodka, amigos y rock n? ron.

D5  F5  C5  D5
D5  F5  A#5  A5
D5  F5  C5  D5
D5  F5  C5  D5
Ohh oh oh, ohh oh oh oh...

             F5          G5 F5          F5                 C5
e. ----------------------------------------------------------|
B. ----------------------------------------------------------|
G. ----------10----------12-10----------10-------------------|
D. ----------10----------12-10----------10---2-3---5-3-2-----|
A. -55555555-8--55555555-10-8--55555555-8--5-----5-------5-3-|
E. ----------------------------------------------------------|

*Coro

 F     A#            F
Ven, levanta de una vez
   A#             Dm
y bebe hasta el amanecer
    A#         C
tu alma tiene sed.
 F          A#               F
Ven, si el frío entra en tu piel
   A#        Dm
abrígate con un amor
   A#              C
bañado en Vodka?n?Roll.

D5  F5  C5  D5
D5  F5  A#5  A5
D5  F5  C5  D5
D5  F5  C5  D5
Ohh oh oh, ohh oh oh oh...

    D5    F5 C5       D5         D5    F5 A#5      A5
e. -10-------------------------|-10-------------------|
B. ----13-10----10-11-10-------|----13-10----10-11-10-|
G. ----------12----------10----|----------12----------|
D. -------------------------12-|----------------------|
A. ----------------------------|----------------------|
E. ----------------------------|----------------------|

    D5    F5 C5       D5         D5    F5 C5        D5
e. -10-------------------------|-10-12-13-12-10----10-|
B. ----13-10----10-11-10-------|----------------13----|
G. ----------12----------10----|----------------------|
D. -------------------------12-|----------------------|
A. ----------------------------|----------------------|
E. ----------------------------|----------------------|


Suggest correction
Give kudos to tab author, rate the tab!
1 2 3 4 5
comments
print report bad tab
guest
Wanna post a correction for this tab? Suggest correction