Oops, an error
Loading. Please wait.

Y Serás Canción Tab

version 2
version 2

Whole song

142 views 3 this week
no commentswrite comment
1 2 3 4 5
3 more votes to show rating
add to favorites
×
Save as Personal and add changes to this tab that will be seen only by you. Learn more ›
×
You can save this tab as Personal to edit and correct it or add notes. All changes will be seen only by you. Learn more »
save as personal
new!
launch autoscroll
font size
0
reset
how to read this tab
guitar tuner
Autoscroll
slow
fast
+/-
esc
set tempo
stop
hola esta es mi version de solo espero que les guste:
hacia mucho que la quería corregir pero no me había dado el tiempo
bueno saludos espero que la mejoren (la saque con el teclado y de ahí lo pase a
[ch]A[/ch] guitarra)

1||-------------------------------------|
2||-8---8-9-8-6--3---6-6-6--4--6--8-----|
3||---5------------3--------------------|  este es el intro parte 1
4||-------------------------------------|  después entra todo en gral.
5||-------------------------------------|
6||-------------------------------------|


1||-------------------------------------------------|\
2||-8---8-9-8-6--3---6-6-6--4--6--8-----------------| \
3||---5------------3-----------------8--5--5--8--5--|  \
4||-------------------------------------------------|   \
5||-------------------------------------------------|    \
6||-------------------------------------------------|     \

1||-------------------------------------|
2||-8---8-9-8-6--3---6-6-6--4-----------|
3||---5------------3-----------7--5-----|
4||-------------------------------------|aquí va todos los instrumentos
5||-------------------------------------|
6||-------------------------------------|

1||-------------------------------------------------|      /
2||-4-3---------4-3---------4-3---------------------|     /
3||-----5-4-0-5-----5-4-0-4-----5-4-0-5-------------|    /
4||-------------------------------------------------|   /
5||-------------------------------------------------|  /
6||-------------------------------------------------| /

1||----------------------------------|\
2||-6-4-6-9-11-8---------------------| \
3||----------------------------------|  \
4||----------------------------------|   \
5||----------------------------------|    \
6||----------------------------------|
                                         final
1||----------------------------------|
2||-5-8-7-5-3-5---5------------------|    /
3||-------------4--------------------|   /
4||----------------------------------|  /
5||----------------------------------| /
6||----------------------------------|/


aqui va el solo:
(no lo corregi porque no me lo se pero es la versión correcta creo,
porque no hice el esfuerzo de hacerlo)
1||------------------------------------------------------------|
2||-12b13-12---------------------------------------------------|
3||----------15-13-12-15-13-12----13-12-------12---------------|
4||----------------------------15-------15-13----15-13-12------|
5||-------------------------------------------------------15---|
6||------------------------------------------------------------|

1||------------------------------------------------------------|
2||--------------------------------------------12h13HA---------|
3||--------------------------------12--------------------------|
4||----12-13-15-13-12-----12-13-15----15-13-12-----------------|
5||-15----------------15---------------------------------------|
6||------------------------------------------------------------|

1||--------------|
2||-13p12p8------|
3||--------------|
4||--------------|esto se hase 7 veces
5||--------------|
6||--------------|

1||----------------------------------|
2||-13-13-13-12-12-12-8-8-8-6-6-6----|
3||----------------------------------|
4||----------------------------------|
5||----------------------------------|
6||----------------------------------|

    T
1||------------|
2||-12-8h68----|
3||------------| esto se toca 8 veces
4||------------| aproximadamente
5||------------|
6||------------|

    T
1||------------|
2||-13-12h812--|
3||------------|esto va despues
4||------------|de lo anterior e
5||------------|igual son 8 veces
6||------------|aproximadamente

1||-14b15---------14b15----------------------------------------|
2||-------(12h13)-------19-18-17-16-18-17-16-15-17-16-15-14--13|
3||------------------------------------------------------------|
4||------------------------------------------------------------|
5||------------------------------------------------------------|
6||------------------------------------------------------------|

1||----------15----------------------|
2||----15-16----18-18-18-18p15-------|
3||-17-------------------------17----|
4||----------------------------------|
5||----------------------------------|
6||----------------------------------|

1||-------18-------18------------------------------------------|
2||-19b20----19h20----21-20-18-21-20-18----20-18-------18------|
3||-------------------------------------20-------20-19----20---|
4||------------------------------------------------------------|
5||------------------------------------------------------------|
6||------------------------------------------------------------|

1||-------------------------|
2||-------------------------|
3||-19-17-19-20--19-17-19---|
4||-------------------------|
5||-------------------------|
6||-------------------------|

1||-18-16-15----16-15-------15---------------------------------|
2||----------18-------18-16----18-16-15-18-16-15---------------|
3||----------------------------------------------17------------|
4||------------------------------------------------------------|
5||------------------------------------------------------------|
6||------------------------------------------------------------|

1||-------18-------18-------18-------18------------------------|
2||-19b20----19b20----19b20----19b20----19b20/-----------------|
3||------------------------------------------------------------|
4||------------------------------------------------------------|
5||------------------------------------------------------------|
6||------------------------------------------------------------|

los acordes que acompañar son:
C5, A#5, G5, F5 x4veces
 la simbologia usada:
B: bens
p: pull-off
/: slide-off
T: tapping
( ): gost note
HA: armonico artificial
 buca en el face
como "hector bor jaja"
Suggest correction
Give kudos to tab author, rate the tab!
1 2 3 4 5
comments
print report bad tab
guest
Wanna post a correction for this tab? Suggest correction