Oops, an error
Loading. Please wait.

Hoy Decidí Tab

7 views 1 this week
no commentswrite comment
1 2 3 4 5
3 more votes to show rating
add to favorites
launch autoscroll
font size
0
reset
how to read this tab
guitar tuner
×
Best way to learn
"Hoy Decidí"
Autoscroll
slow
fast
+/-
esc
set tempo
stop
ES UNA ROLA DE UNA BANDA MOKEWANA,. ES SENCILA PERO BIEN PUESTA,.,
DUDAS, O CONSULTAS A  roger_blues@   SUENA BIEN AUNKE
LA SAQUE CASI A LA VOLADA NOMAS,. A VER Y EN ESPECIAL
PARA LOS Q INTENTAN Y NO PUEDEN HACERSE UNA JAJA,.
SALUDOS Y  VA DEDICADA PARA EL MEN Q  SUBIO LA TRANSCRIPCION ANTERIOR,.
Q SE COMPRE UN PAR DE OIDOS  JAJA,.,.,.,

INTRO:: con viola acústica

e|------------------------------------------------7--------------------|
B|-7h8-7h8-8-7h8-7-----------8------------7h8-7-8---8-7--5/3-3/5----7h8|
G|-----------------9-7-5-5-7^--7^--7-5-4-5-----------------------------|
D|---------------------------------------------------------------7/9---|
A|---------------------------------------------------------------------|
E|---------------------------------------------------------------------|

Em              Am                  D                            Em
Hoy decidí olvidar tu adiós y tu recuerdo del que quiero huir lejos de ti
Em                      Am          D
talves te olvides quiza reiras pero al final yo encontré razón para
    B
arrancarte fuera de mi

Coro:
C                               Em                     C
Estes donde estes no pensaré en ti otra vez y aunque vuelvas yo seguiré
       D                  B                   Em
destruyendo esta farza q ahoga mi alma es el fin.....

e|---------------------------------------------------------7------------|
B|--/8-7-7h8-8-7h8-7-------------8----8-8-8--------7h8-7-8---8-7-5/3-3/5|
G|--------------------9-7-5-5-7^---7^-------7^-5-4----------------------|
D|----------------------------------------------------------------------|
A|----------------------------------------------------------------------|
E|----------------------------------------------------------------------|

e|-------------------------|
B|---------7h8h7h8h7h8h7---|
G|-7-----------------------|
D|---7-7/9-----------------|
A|-------------------------|
E|-------------------------|


Em                       Am               D
Quizas volverás quien sabrá el final si serás feliz,
                           Em
seguirás igual o si cambiarás
Em                   Am               D                           B
adios te diré serás una más, desde el libro que se quemará y en cenizas al
viento se alejará

Coro:
C                               Em                     C
Estes donde estes no pensaré en ti otra vez y aunque vuelvas yo seguiré
       D                  B                   Em
destruyendo esta farza q ahoga mi alma es el fin.....


e|------------------------------------------12-----------10/12-10-10---|
B|-----8h10-10^-10h8h10~--10/12^--12h10h12^----12^-10----------------12|
G|-7h9------------------------------------------------12---------------|
D|---------------------------------------------------------------------|
A|---------------------------------------------------------------------|
E|---------------------------------------------------------------------|

e|-10-10h12-12-12h10/8-8h10-7h8h7--------------------------------------|
B|--------------------------------10~-8-8h10^~~-8h10-8-7---7-8-12------|
G|-------------------------------------------------------9-------------|
D|---------------------------------------------------------------------|
A|---------------------------------------------------------------------|
E|---------------------------------------------------------------------|

e|-------------------------------------------15-----15-15-15-----------|
B|-7h8-7-8-10--7h8-7-8-10/12-12-12/13-13/15^----15^----------15^-13-12-|
G|---------------------------------------------------------------------|
D|---------------------------------------------------------------------|
A|---------------------------------------------------------------------|
E|---------------------------------------------------------------------|

e|-------------19-------19--------------19-19-19-20-20-20-/22-/23-/24^|
B|-19/20-19-20----20-19----19-17-19-17--------------------------------|
G|--------------------------------------------------------------------|
D|--------------------------------------------------------------------|
A|--------------------------------------------------------------------|
E|--------------------------------------------------------------------|

Coro:
C                               Em                     C
Estes donde estes no pensaré en ti otra vez y aunque vuelvas yo seguiré
       D                  B
destruyendo esta farza q ahoga mi alma
C                               Em                     C
Estes donde estes no pensaré en ti otra vez y aunque vuelvas yo seguiré
       D                  B                   Em
destruyendo esta farza q ahoga mi alma es el fin.....

e|---------------------------------------------------------------------|
B|-----8h10--10^-8-10--12^~~h10----------------------------------------|
G|-7h9--------------------------12-11-12-11h12h11...-12-11-------------|
D|---------------------------------------------------------12-12/14-14-|
A|---------------------------------------------------------------------|
E|---------------------------------------------------------------------|

e|-----------------------------------------------7---7---7-------------|
B|---------8-7-------------------------------------8---7------7h8-7----|
G|-----7h9-----9-7----------7-9^--9h7h9-7-9-9^-9-----------9--------9-7|
D|-7h9-------------9-7--7-9--------------------------------------------|
A|---------------------------------------------------------------------|
E|---------------------------------------------------------------------|

e|-8----8---8--------------------------------------------------15------|
B|---10---8---7-8^-7-----10----10---10----------------------15^---15---|
G|-------------------9------11----9----7-7-----7h9-9^-9-7--------------|
D|-----------------------------------------7h9-------------------------|
A|---------------------------------------------------------------------|
E|---------------------------------------------------------------------|

e|-15-14----15-14----15/17-15-14--17-15--------------------------------|
B|-------12-------12--------------------13--12-12h13-13-12-13-13-13/15-|
G|---------------------------------------------------------------------|
D|---------------------------------------------------------------------|
A|---------------------------------------------------------------------|
E|---------------------------------------------------------------------|

e|-------------------------15-14--------------------|
B|-15-15/17-17--17^-15--17-------17-17-15-17-17^^---|
G|--------------------------------------------------|
D|--------------------------------------------------|
A|--------------------------------------------------|
E|--------------------------------------------------|

e|15h12------12----14h12------12----15h12------12----14h12----17h12----|
B|------12------12-------12------12-------12------12-------12-------12-|
G|---------12---------------12---------------12------------------------|
D|---------------------------------------------------------------------|
A|---------------------------------------------------------------------|
E|---------------------------------------------------------------------|

e|20h17------17----19h17------17----20h17------17----19h17----22h17----|
B|------17------17-------17------17-------17------17-------17-------17-|
G|---------17---------------17---------------17------------------------|
D|---------------------------------------------------------------------|
A|---------------------------------------------------------------------|
E|---------------------------------------------------------------------|

e|-17h14-------------14^---------14-17h14-------------14^---------------|
B|-------15----15h17----15----15----------15----15h17----15-17^-17-15-17|
G|----------14-------------14----------------14-------------------------|
D|----------------------------------------------------------------------|
A|----------------------------------------------------------------------|
E|----------------------------------------------------------------------|

e|-------------------|
B|-7h8h7h8h7h8h7-----|
G|-------------------|
D|-------------------|
A|-------------------|
E|-------------------|

ES TODA LA ROLA,.  AL MENOS GRADESCAN PS,. YA TIENEN MI CORREO,.
 AHÍ NOS VEMOS GENTE,.,
Suggest correction
Give kudos to tab author, rate the tab!
1 2 3 4 5
comments
print report bad tab
guest
You may want to rate the tab now too:
select rating
Wanna post a correction for this tab? Suggest correction