Oops, an error
Loading. Please wait.

Se Me Acabó El Amor Chords

version 2
version 2

Whole song

by Maia
76 views 1 this week
no commentswrite comment
1 2 3 4 5
3 more votes to show rating
add to favorites
launch autoscroll
font size
0
reset
transpose
0
reset
simplify chords
display chords
guitar tuner
Autoscroll
slow
fast
+/-
esc
set tempo
stop
Help us to improve Ultimate-Guitar.com Take our survey!
×
Esta cancion es trabajada con capo en el 2do traste, espero este clara para todos
el arpegio traten de sacarlo con la cancion.


intro
A2, A/F#, D2, E(se repite dos veces)
a la segunda vez va E2


       A2                 C#m  C#m2
Si yo pudiera encontrar hoy las palabras
       F#m         E           D          E
y marcharme sin dejar dolor en tu corazón
      F#m         E            D          C#m 
si encontrara la manera de explicar mi despedida
    Bm       A2     E2
sin dejar un mal sabor

          A2           
No es culpa de tus besos 
           C#m                      F#m      E
ni de tus manos que sin miedo me acarician
    D            G#               C#m   B
no busques algo que ya se ha perdido
        C#          F#
en una tonta discusión
    Bm                 A2
no tiene, no lo encuentro, 
   E2
no existe explicación

 
          A2
Se me acabó el amor
C#m              F#m  E  D         E 
se fue, así, no más     sin avisármelo
       A2             C#m            F#m       E
y no pensó jamás en el dolor que viviría en ti
D                   E2
se me acabo el amor, 
      A2(intro)
se fue

           A2                      C#m  C#m2
Cómo olvidar esos momentos que vivimos 
      F#m              E
la intensidad de cada día, 
     D                 E2
lo descubierto junto a ti
       F#m            E           D     C#m
los momentos compartidos lo felices que hemos sido
   Bm      A2      E
mas no sé cómo se fue
      A2                   C#m                   F#m    E
no sé cómo pedirte perdón por mis palabras sin sentido
   D         G#                 C#m    B
no sé como encender de nuevo el corazón 
     C#              F#
sólo tengo este adiós
      Bm           A2
no tiene, no lo encuentro, 
     E
no existe explicación

        A2
Se me acabó el amor........

          Bm
y no puedo explicarlo, 
          E
no encuentro las palabras, 
     final
se fue
final
----0---20-0---0--20-0--0-20--0---0--20--------0-------5-
----------------------------------------------0-0-----5--
---2--2------2--2------2-2-------2-2---------2---2-------
-0------------------------------------------2--------7---
-----------4---------3--------2----------0----------7----
---------------------------------------------------5-----


acordes intro
A2     A/F#   D2             y C#m2
------|------|------|         |---4------|
------|------|--3---|         |----5-----|
--2---|--2---|--2---|         |-----6----|
--2---|--2---|------|         |--3-------|
------|------|------|         |----------|
------|--2---|------|         |----------|
cuando me refiero a E2 es porque hace esto
---------------------
---------------------
---1---2--4----------
---2---2--2----------
---------------------
-0---2---4-----------

recuerden, la cancion va con capo en el segundo traste, por ende, cuando vayan a hacer los acordes
que aqui muestro no olviden que en guitarra con capo el 2 que aqui muestro seria en la normal el 4, ven??
espero les
Suggest correction
Give kudos to tab author, rate the tab!
1 2 3 4 5
comments
print report bad tab
guest
You may want to rate the tab now too:
select rating
Wanna post a correction for this tab? Suggest correction