Oops, an error
Loading. Please wait.

Se Me Acabó El Amor Tab

by Maia
34 views 1 this week
no commentswrite comment
1 2 3 4 5
3 more votes to show rating
add to favorites
×
Save as Personal and add changes to this tab that will be seen only by you. Learn more ›
×
You can save this tab as Personal to edit and correct it or add notes. All changes will be seen only by you. Learn more »
save as personal
new!
launch autoscroll
font size
0
reset
how to read this tab
guitar tuner
Autoscroll
slow
fast
+/-
esc
set tempo
stop
ESTA CANCION ESTA COMPLETA Y TIENE LA
VENTAJA DE QUE NO EXISTE LA NECESIDAD DE
COLOCAR EL CAPO EN LA CEJA 2,
ESTA YA LISTA PARA TOCAR
LOS ACORDES HAY QUE ARPEGIARLOS TODOS
ESCUCHEN BIEN LA CANCION PARA QUE SEPAN
COMO HACER LOS ARPEGIOS BIEN? NO ES DIFICIL ¡!
YA ESTAN LAS NOTAS DEL MISMO

CUALQUIER SUGERENCIA O INQUIETUD
SERA BIENVENIDA ..

Intro

--------2------------2-------4-------------2------4H2-
-------2-2-2---2--2-------2----2-2---2---2-------2---2
------2---2----4-4-------4-4----4----4--4-------4-----
-----4---------44-------2------------4-4-------4------
----4-----------------------------------------2-------
---2-----------4---------------------2----------------


------------2-----4H2----------------------e
-2---2--2-------2----2-2-------------------b
4----4-4-------4-2----4-------3---4---6----g
-----44-------2----------------------------D
-------------------------------------------A
-----4---------------------2----4-----6----E

MEDIO

--------2------------2-------4-------------2------2--2
-------2-2-2---2--2-------2----2-2---2---2-------2-2--
------2---2----4-4-------4-4----4----4--4-------4---4-
-----4---------44-------2------------4-4-------4------
----4-----------------------------------------2-------
---2-----------4---------------------2----------------

--4------2------4H2----------------------e
-----2--------2------2-------------------b
--4-4--------4-2----4-4-----3---4---6----g
--44--------2----------------------------D
-----------------------------------------A
--4-----------------------2----4----6----E

Riff1

-------------------e
-------------------b
---3----4----6-----g
-------------------D
-------------------A
-2----4------6-----E


Riff2 (final)


-------4------------4-----------4------------4--------
-----7---7----7---7---7-------7---7----7---7---7------
----4-4-4-4---4--4-4-4-4-----4-4-4-4---4--4-4-4-4-----
------------------------------------------------------
-7------------6------------5-----------4--------------
------------------------------------------------------

-------------------7----e
-----9------------7-----b
---8--8-8--------8------g
--9-9--9--------9-------D
------------------------A
-7----------7-----------E


        Bsus2                     D#m7     C#dim7
Si yo pudiera encontrar hoy las palabras
       G#m        B/F#      Eadd9      F#7
y marcharme sin dejar dolor en tu corazón
        G#m7       B/F#         Eadd9        B*
si encontrara la manera de explicar mi despedida
       C#m7   Bsus2    Riff1
sin dejar un mal sabor

       Bsus2
No es culpa de tus besos
           D#m7                      G#m  B/F#
ni de tus manos que sin miedo me acarician
    Eadd9       A#7             D#m7   C#
no busques algo que ya se ha perdido
        D#    D#sus G#
en una tonta discusión
    C#m7          Bsus2
no tiene, no lo encuentro,
    Riff1
no existe explicación


          Bsus2         D#7*
Se me acabó el amor
                G#m  Bmaj6     Eadd9    F#
se fue, así, no más     sin avisármelo
       Bsus2        D#7*
y no pensó jamás
                    G#m         Bmaj6
en el dolor que viviría en ti
         Eadd9         Riff1
se me acabo el amor,
       Medio
se fue

           Bsus2                 D#m7    C#dim7
Cómo olvidar esos momentos que vivimos
           G#m         B/F#
la intensidad de cada día,
        Eadd9            Riff1
lo descubierto junto a ti
       G#m7         B/F#       Eadd9          B*
los momentos compartidos lo felices que hemos sido

       C#m7   Bsus2   F#
mas no sé cómo se fue

 B7(capo7)           D#m7                   G#m  Bmaj6
no sé cómo pedirte perdón por mis palabras sin sentido
   Eadd9         A#7            D#m7  C#
no sé como encender de nuevo el corazón
     D#sus  D#    G#
sólo tengo este adiós
    C#m7          Bsus2
no tiene, no lo encuentro,
     Riff1
no existe explicación


          Bsus2         D#7*
Se me acabó el amor
                G#m  Bmaj6     Eadd9    F#
se fue, así, no más     sin avisármelo
       Bsus2        D#7*
y no pensó jamás
                    G#m         Bmaj6
en el dolor que viviría en ti
         Eadd9
se me acabo el amor,

        C#m7
y no puedo explicarlo,
         F#7
no encuentro las palabras,
     Final
se fue


ACORDES
           EADgbe
Bsus2      X24422
D#m7       X68676
C#dim7     XX5656
G#m        466444
B/F#       224442
Eadd9      X74474
F#7        242322
G#m7       4X444X
B*         X64464
C#m7       X46456
A#7        686766
C#         X46664
D#         X68886
D#sus      X68896
G#         466544
D#7*       X6X646
Bmaj6      2XX444
F#         244322
B7(capo7)  797877
Suggest correction
Give kudos to tab author, rate the tab!
1 2 3 4 5
comments
print report bad tab
guest
Wanna post a correction for this tab? Suggest correction